power-chord

    Autor Mensagem
    gjsuzigan
    Veterano
    # jan/04


    ta ligado no power-chord né.....

    Sol ( G ) : D--5---
    A--5---
    E--3---

    tem como fazer issu a cima mas com notas menores??????ex Gm

    renatocaster
    Moderador
    # jan/04
    · votar


    não pq o power chord é híbrido, ou seja, ele não é nem maior nem menor, pq ele eh formado só pela tonica e quinta portanto ele nao possui a 3ª, que é a nota que caracteriza se o acorde é menor ou maior. Por ex: acorde maior (T 3 5)
    acorde menor (t 3m 5). Sacou?

    _Wander_
    Veterano
    # jan/04
    · votar


    Pra fazer um acorde maior ou menor usando um Power chord o desenho é o mesmo
    A maior
    
    e------------------------------------------------------
    B------------------------------------------------------
    G------------------------------------------------------
    D------------------------------------------------------
    A-----7------------------------------------------------
    E-----5-------------------------------------------------


    A menor
    
    e------------------------------------------------------
    B------------------------------------------------------
    G------------------------------------------------------
    D------------------------------------------------------
    A-------------7-----------------------------------------
    E-------------5-----------------------------------------


    O "5" da tab é a tonica o "7" a quinta

    Como no power chord não ten terça vc pode usa-lo como maior ou menor

    _Wander_
    Veterano
    # jan/04
    · votar


    Obs: (eu sei que os acordes que postei não são maiores nem menores pois não tem a terça. Escrevi A menor e A Maior pra facilitar a compreensão

    Slave of the Maiden
    Veterano
    # jan/04
    · votar


    kra os power-chords naum tem tonalidade por isso naum tem menor nem maior ....para formar um acorde completo ele tem q ter no minimo 3 notas diferentes ...mas o power-chord ele só tem 2
    mas vc faz 3 ....sendo q uma é a oitava da outra

      Enviar sua resposta para este assunto
              Tablatura   
      Responder tópico na versão original
       

      Tópicos relacionados a power-chord