Solo de composição própria.Avaliem

    Autor Mensagem
    Guilherme Nau
    Veterano
    # set/11


    É o seguinte pessoal.O esse solo era de uma música que eu tinha feito a muuuuuuito tempo.Era pra minha namorada,mas achei que ele ficou muito metal pra uma musica de amor.Então deixei a música só no papel.Mas o solo eu continuo treinando.

    Gostaria que você avaliacem ele,composição,(sem ritmo beleza?fazer solo sem ouvir ritmo é foda) e o jeito que toco pessoal,se falto pegada,ou ta muito exagerado.Manda bala.

    (problemas de edição no começo do vídeo,saiu meio distorcido no começo mais depois ta sossegado :D)



    Guilherme Nau
    Veterano
    # set/11
    · votar


    Porra ninguém?

    ferbarper
    Veterano
    # set/11
    · votar


    musica de amor pra isso cara?
    eita quero ouvir um metal teu então
    gostei do solo
    so não gostei do timbre ,achei meio apagado , não sei se foi por causa da qualidade de gravação

    Guilherme Nau
    Veterano
    # set/11
    · votar


    ferbarper
    eita quero ouvir um metal teu então

    Eita,você me deu uma grande idéia.


    so não gostei do timbre ,achei meio apagado , não sei se foi por causa da qualidade de gravação


    Foi e não foi.Deixei o tone no 1 pra fica sem aquele ruido chato.

    Vlw por comentar Abrç

    Renan Teles
    Veterano
    # set/11
    · votar


    Então cara. Gostei e não gostei. Vai lá as dicas:

    - Eu achei mais hardRock do que metal, mas em todo caso procure gravar com um backing track pois ai conseguimos identificar melhor o estilo de música.

    - Por segundo, acho que seria legal você começar a treinar tapping, em sua parte mais rápida do vídeo traria um som bem mais limpo e digno de um belo solo! ;)

    - Achei sua pegada boa, mas ainda ela não está bem madura. Veja muitos videos de guitarristas mais experientes, sempre é bom!

    - `Procure melhorar sua palhetada (principalmente a alternada que foi a que você usou). A mão direita é muito importante. Procure ver posições mais corretas para abafar as cordas que você não está usando e mesmo as que você está, isso também influencia na pegada que citei acima.

    Continue sempre estudando. Você está num caminho ótimo. Parabéns. Continue mandando vídeos que é sempre bom ver a evolução.

    Abraço.

    ;)

    rasjr1305
    Veterano
    # set/11
    · votar


    Ficou bem Led Zeppelin esse solo seu, mais pro rock que pro metal hehe

    Guilherme Nau
    Veterano
    # set/11 · Editado por: Guilherme Nau
    · votar


    Renan Teles
    Eu achei mais hardRock do que metal, mas em todo caso procure gravar com um backing track pois ai conseguimos identificar melhor o estilo de música.

    Pode crer, deixei o video bem jogado mesmo.Próximo eu ponho e posto pra vcs me ajudarem a dar dicas pra evoluir.

    Acho que o que influencio no tapping foram duas coisa:

    Na minha guitarra (pelo menos na minha) quando o tone ta no 1 a tapping sao fraco e o solo mais ou menos forte.Acho que o que fez o tapping parecer fraco foi isso.Mais o nervosismo de errar (gravei 9x e exclui 8 vídeos).

    Isso é verdade,mas o que me dificultou a pegada foi o medo de errar e ter que gravar tudo de novo.Mais sim,me falta pega.


    Procure melhorar sua palhetada (principalmente a alternada que foi a que você usou). A mão direita é muito importante. Procure ver posições mais corretas para abafar as cordas que você não está usando e mesmo as que você está, isso também influencia na pegada que citei acima.

    Putz,que dica interessante!Na parte de abafar o tone dificultou.Não que o jeito de eu tocar esta na culpa do tone,mas pq o tone tira muito o som de notas que são pegas mais baixas.Eu poderia trocar sim o cap pra baixo com tone 10.Mas tava dando um ruido infernal.


    Continue sempre estudando. Você está num caminho ótimo. Parabéns. Continue mandando vídeos que é sempre bom ver a evolução.


    Sim sim,entendi seu recado,pegada e posição da mão direita.Mas gostei mais da de ver vídeos de grandes guitarristas ;D

    Um abraço cara,vlw pela atenção

    _________________________________________


    rasjr1305

    Ficou bem Led Zeppelin esse solo seu, mais pro rock que pro metal hehe
    Se for avaliar eu ouço muito mais slash e van hallen do que Led.Mas eu axei uma mistura dos 3 mesmo.E é bem pra rock mesmo kkk,metal eu exagerei kk

    vlw cara obrigado pela atenção

    pepomello
    Veterano
    # set/11
    · votar


    Porra gostei pra caralho, só que teve umas parte tensa beeeem nada haver, manda a tab dele ae ...

    Guilherme Nau
    Veterano
    # set/11 · Editado por: Guilherme Nau
    · votar


    pepomello

    Parte 1


    e------------------------------------------------------
    B------------------------------------------------------
    G------6---8---8/9~~~~9/8-6-8~~~~~~\1------------------
    D----6---6---6-----------------------------------------
    A------------------------------------------------------
    E------------------------------------------------------



    e-----------9-------9----------------------------------
    B-1/10-9-12-12^^^14---12-9-----------------------------
    G-1/10---------------------11^13v11p9h11p9h11p9--------
    D------------------------------------------------------
    A------------------------------------------------------
    E------------------------------------------------------


    V


    e------------------------------------------------------
    B------------------------------------------------------
    G----11^13v11p9-----9~~~~------------------------------
    D---------------h11-------11p9h11~~~~------------------
    A------------------------------------------------------
    E------------------------------------------------------
    ~

    Treine bastante estabilidade e técnica nessa parte.Aconselho montar uma pestana nas cordas nas casas...:

    e----9
    B----9 e fazer os movimentos nas outras casas com os dedos que você acha melhor.Ali eu fiz com os dedos 2 e 3 e montei a pestana com o dedo 1.
    Só não sei quantas vezes ela é feita kkkkk.Faz o quanto caber no ritmo bem rápido e repetidamente
      
    e----9------------------------------------------------
    B------h12p9------------------------------------------
    G------------11---------------------------------------
    D-----------------------------------------------------
    A-----------------------------------------------------
    E-----------------------------------------------------

    Depois dessa parte rápida executa na sequencia essa:


    e-12---9-------9------------------------------------------------
    B--------12^14---12-9-------------------------------------------
    G---------------------11^13v11-9h11-9~-------------9------------
    D-------------------------------------11-9-11-9-11---11-9-11-9
    A---------------------------------------------------------------12
    E---------------------------------------------------------------


    na mesma sequencia...


    e------------------------------------------------------
    B------------------------------------------------------
    G------------------------------------------------------
    D------------------------------------------------------
    A---12-11-9-11-9---------------------------------------
    E----------------12-9-empurre a alavanca para diminuir tons [T]

    Se caso você não tenha uma ou não sabe onde ela está (meu caso) ou tem preguiça de coloca-las faça assim

    [T]
    e------------------------------------------------------
    B------------------------------------------------------
    G------------------------------------------------------
    D------------------------------------------------------
    A------------------------------------------------------
    E-----9/2\9--------------------------------------------


    Na sequência...


    e------------------------------------------------------
    B------------------------------------------------------
    G----11^13v11p9---9-----9-11-11^13v11p9----------------
    D--------------h11---11-------------------11-9-11~~~~~~
    A------------------------------------------------------
    E------------------------------------------------------
    ~

    Final

                           E
    e------------------------------------------------------
    B------------------------------------------------------
    G------------------------------------------------------
    D--4h6-4--2-4-2--------2-------------------------------
    A---------------4-2----2-------------------------------
    E----------------------0-------------------------------


    Bom som pepomello

    celotoledo
    Veterano
    # set/11 · Editado por: celotoledo
    · votar


    Guilherme Nau

    Achei bem preso na pentatônica e principalmente no mesmo shape. Mas com caminho é esse mesmo...continue solando, criando e gravando que só melhora.

    Guilherme Nau
    Veterano
    # set/11
    · votar


    celotoledo
    Achei bem preso na pentatônica e principalmente no mesmo shape

    Isso é verdade.Típico de solo composto em 3 minutos por um iniciante kkk

    Abrç cara brigado pela atenção

    Jube
    Veterano
    # set/11
    · votar


    Guilherme Nau
    Bacana man, claro que a gravação ofuscou um pouco a obra, mas em geral parece honesto, quando ao fato da pentatonica, acho bem valido. Embora eu quase não use pentatonicas, um solo pode soar muito bem com uma pentazinha.

    Guilherme Nau
    Veterano
    # set/11
    · votar


    Jube
    um solo pode soar muito bem com uma pentazinha.

    Sim!Slash é um desses.Mas eu achei que ele ficou meio preso na mesma penta e no mesmo shape como disse cara lá em cima.

    Mais vlw por comentar aí.Abrç

    Dark_Dunha
    Veterano
    # set/11
    · votar


    Guilherme Nau
    Não sei pq o início me lembra 18 and life do Skid Row.

    fui_banido_e_voltei
    Veterano
    # set/11
    · votar


    achei que ficou bem legal,(mais pro hard rock do que pro metal),mas acho que faltou pegada,sei lá,me corrijam se eu estiver falando merda mas,você precisa de uma boa pegada para esses solos de hard rock,sei lá,vibratos, bends,uns Harmônicos artificiais e usar essa alavanca,já que você tem!

    Guilherme Nau
    Veterano
    # set/11 · Editado por: Guilherme Nau
    · votar


    Dark_Dunha

    Tonalidade e as oitavas.Mas com a base fica muuuuuito diferende de 18 and Life

    Guilherme Nau
    Veterano
    # set/11
    · votar


    fui_banido_e_voltei
    mas acho que faltou pegada,sei lá,me corrijam se eu estiver falando merda mas,você precisa de uma boa pegada para esses solos de hard rock,sei lá,vibratos, bends,uns Harmônicos artificiais

    Não ta errado não e nem falando merda.Ta certíssimo.Acho que Hard Rock é um estilo de rock que exige muita musicalidade e técnica pra sair uma coisa foda.

    e usar essa alavanca,já que você tem!

    hsuauhshuas.ainda n axei ela kkk

    Dark_Dunha
    Veterano
    # set/11
    · votar


    Guilherme Nau
    Hehehe... aquele início ali com um bend no shape da penta de C# que faz lembrar.

    Guilherme Nau
    Veterano
    # set/11
    · votar


    Dark_Dunha
    bend no shape da penta de C# que faz lembrar.

    Pode crer.Ele usa no solo mesmo.Mas so isso porque o resto fica bem mais diferente

    Filippo14
    Veterano
    # set/11
    · votar


    desculpa mano, vou ser sincero, não curti mtu o solo não, achei q falto mta pegada, parecia q vc pensava oque ia toca, tinha que sair mais natural, outra coisa, vc saia as vezes da casa 9-11 sei la, parava e ia pra casa 2, tenta nesse meio tempo fazer um empilhado e corre da 9 para 2, eh legal vc sai do agudo e ir pro grave, mas tenta fazer uma ligação entre as partes e sei lá, usa mais slide, vibrato, repito, falto pegada mano, e logico poe um playback pra ajuda no feeling do pessoal,.
    Abraço

    Guilherme Nau
    Veterano
    # out/11
    · votar


    Filippo14

    Mano eu não entendi nada cara.A única vez que eu toco em alguma corda na casa 2 é no começo do slide.

    Vamos fazer o seguinte.Talvez amanha eu faça uma Backtrackzinha da parte do solo,mixo e disponibilizo aqui no tópico pra vocês verem

    Vo deixar o volume no máximo pra me da bastante adrenalina pra "ligar" o feeling e vocês avaliam só a pegada e a qualidade do com blz?

      Enviar sua resposta para este assunto
              Tablatura   
      Responder tópico na versão original
       

      Tópicos relacionados a Solo de composição própria.Avaliem