solos nacionais

    Autor Mensagem
    slowhands
    Veterano
    # dez/03


    Alguem ai tem os seguintes solos transcritos?:

    lobao - me chama
    titas - sonifera ilha
    planet hemp - mantenha o respeito
    picassos falsos - quadrinhos
    biquine cavadão - timidez
    ira - envelheço na cidade

    atenção: a base eu já tirei, só preciso dos solos mesmo.

    Mr Laney
    Veterano
    # dez/03
    · votar


      ira 
    
    e------------------------------------------------------
    B----------------------7---7-8-7-----------------------
    G--6-6-7-6-------7-6-7---9-------9-7-9-7-6-------6-7-9-
    D----------9-7-7---------------------------9-7-9-------
    A------------------------------------------------------
    E------------------------------------------------------

    e------------------------------------------------------
    B-7-8-8-10---------------------------------------------
    G------------------------------------------------------
    D------------------------------------------------------
    A------------------------------------------------------
    E------------------------------------------------------


    slowhands
    Veterano
    # dez/03
    · votar


    valeu...um ja foi, so faltam os outros...alguem ai ja tem tirado?

    Mutley AC_DC
    Veterano
    # dez/03
    · votar


    esses solos naum tem no site do cifra club?

    slowhands
    Veterano
    # dez/03
    · votar


    não...so tem a base...mas a base eu ja tirei...

    os solos nao sao dificeis, mas perderia tempo tirando de ouvido...se alguem ai ja tirou, me passa, ok?

    the_paranoid
    Veterano
    # dez/03
    · votar


    Mr Laney
    nossa q solo enorme

    slowhands
    Veterano
    # dez/03
    · votar


    nao importa o tamanho, e sim o prazer que ele proporciona!

    Mr Laney
    Veterano
    # dez/03
    · votar


    Pra vc ve , grande ne? nao falta uma nota, foi o solo q ele pediu.

      Enviar sua resposta para este assunto
              Tablatura   
      Responder tópico na versão original
       

      Tópicos relacionados a solos nacionais