TAB do solo de Sad But True - Metallica

    Autor Mensagem
    hrspedro
    Veterano
    # dez/03


    alguem tem a tab desse solo?

    Kirk Malmsteen
    Veterano
    # dez/03 · Editado por: Moderador
    · votar


    sei lá se esse aki tá certo,só roubei ele descaradamente


    solo pt 1
    A--12--------12-12----------------------------
    F--11--------12-12------------12--------------
    C------12-14-------14---12-14----14-12----12~~
    G--------------------------------------14-----
    pt2
    A-----------------------------------------------
    F-----------12-------9p7p6----------------------
    C-----12-14----14~~--------7h9~~9h10p9p7p0-----9
    G--14--------------------------------------7~~~-

    pt3
    A-----12-15p12----12-15p12----12-15p12-----------12-------
    F--14----------14----------14-----------12-------12------
    C------------------------------------------14-14----14-12-

    G-14-12-10

    pt4
    A--14-14----------------14-------12--------14-12-14-12-14-12
    F--14-14-14-12----12-14-14-12----12-----12-14-12-14-12-14-12
    C--------------14-------------14-----14---------------------

    pt5
    A--------------------------------------------12-13----12-13
    F--------------------------12----12-14-12-14-------14------
    C---------12---12-14-12-14----14---------------------------
    G-14-12-14--14---------------------------------------------

    d----------12-15-15-13-12-15-13-12
    A-15-13-15-------------------------15-12--15-12
    F---------------------------------------14-----14-15-15


    Kirk Malmsteen
    Veterano
    # dez/03
    · votar


    putz fico mor tosco...fala um email ae que eu mando a tab se vc num entender essa aki

      Enviar sua resposta para este assunto
              Tablatura   
      Responder tópico na versão original
       

      Tópicos relacionados a TAB do solo de Sad But True - Metallica