Pedal-point

Autor Mensagem
Death
Veterano
# dez/03


Alguém pode me dar algumas idéias, frases, links?

Dave Murray
Veterano
# dez/03
· votar


alguem pode explicar oq eh ? :P

Death
Veterano
# dez/03
· votar


Dave Murray
pedal-point consiste em repetição de notas
a nota pedal é aquela q se repete durante o intervalo das escalas

Dave Murray
Veterano
# dez/03
· votar


emtendi oq eh...tem um exemplo de alguma musica pra eu me situar melhor ?

GuitarHouse
Veterano
# dez/03
· votar


rebirth o kiko usa bastante...um pouco antes da parte q ele faz uns cromatismos legais la

Death
Veterano
# dez/03
· votar


GuitarHouse
bem lembrado!

eu estava pegando a Lifting Shadows Off A Dream

deeem mais exemplos
se possível, me deem idéias de como criar

GuitarHouse
Veterano
# dez/03
· votar


Dave Murray
petrucci tb usa um pouco

Dave Murray
Veterano
# dez/03
· votar


vou ver amanha

vongoog
Veterano
# dez/03
· votar


Como, repeticao de notas ?

GuitarHouse

Lembra akele topico q criei " Tecnica Desconhecida " ?

Entao, é um Palm Mute q e acresentado notas repetidas porem em cordas diferentes...

ServeTheServants
Melhor arranjo
Prêmio FCC violão 2008
# dez/03
· votar


pedal point não é aquilo em que você sustenta uma nota enquanto toca outras rapidão?




-----8-----5---------------------------------------|

-----------------8-----5---------------------------|
--5-----5-----5-----5-----5--7--5-----------5------|
-----------------------------------7--5--7-----7---|
---------------------------------------------------|
---------------------------------------------------|



Tipo ... um pedal point é isso ai.

GuitarHouse
Veterano
# dez/03
· votar


vongoog
q era palm-mute era sabido ja...sobre as notas, ai ja era necessario saber mesmo do q se tratava, pois eh muito dificil reconhecer a diferenca de timbres de cordas diferentes nakela velocidade e com distorcao...

GuitarHouse
Veterano
# dez/03
· votar


ServeTheServants
eh.

vongoog
Veterano
# dez/03
· votar


GuitarHouse
E verdade
ServeTheServants

Poderia me explicar oq e Guitar pro ?

ServeTheServants
Melhor arranjo
Prêmio FCC violão 2008
# dez/03
· votar


vongoog
Ué, guitar pro é aquele programinha que faz tablaturas. Tem na página de downloads do cifraclub pra pegar.

Dave Murray
Veterano
# dez/03
· votar


ah...isso ae q eh pedal point...agora saquei...uso essa poha um monte

GuitarHouse
Veterano
# dez/03
· votar


vongoog
www.fernandoamaral.net/?page=programas

ServeTheServants
Melhor arranjo
Prêmio FCC violão 2008
# dez/03
· votar


GuitarHouse
Esse band-in-a-box faz bateria tambem?

Eu to tendo que usar o Aldo's Pianito, porque o Guitar Pro não tá funcionando no meu pc.

GuitarHouse
Veterano
# dez/03
· votar


ServeTheServants
num conheco esse band-in-a-box

vongoog
Veterano
# dez/03
· votar


GuitarHouse


baixei o guitar pro 4.


COmo usa akilo cara ???

Dave Murray
Veterano
# dez/03
· votar


vongoog
vc sabe ler tablatura ?
entao...eh igual, mas vc pode montar ela ouvindo as notas...clica na linha correspondente a corda, e digita um numero, q eh o numero da casa a ser tocada

vongoog
Veterano
# dez/03
· votar


mas tipo qual e a vantagem q ela me traz ? da riff exercicios para mim ?

Dave Murray
Veterano
# dez/03
· votar


vongoog
entra no site www.mysongbook.com lah tem varias tablaturas pro guitar pro prontinhas, de musicas conhecidas e exercicios....eh como se fosse uma tablatura normal mas vc pode ouvir o som pra saber exatamente como toca

Death
Veterano
# dez/03
· votar


1.2.3 4.
||------------0--------------|----------------0----------||----------0 -----
||------------------0--------|----------3--------3-------||----------- -----
||o--------4-----------4-----|-------2--------------2---o||-------4--- -----
||o-----4-----------------4--|----0---------------------o||----2------ -----
||---2-----------2-----------|---------------------------||-0--------- --0--
||---------------------------|-3-----------3-------------||----------- -----


--------------|
--0-----------|
-----4--------|
--------2-----|
--------------|
--------------|


Verse 1 (Riff A)
He seems alone and silent thoughts reamain
||-----------------------------|-------------------------|------------ -------|
||-----2-----------2-----------|-3-----------3-----------|-2---------- -2-----|
||o----------4-----------4-----|-------4-----------4-----|-------4---- -----4-|
||o-------4-----4-----4-----4--|----4-----4-----4-----4--|----4-----4- ---4--4|
||-----------------------------|-------------------------|------------ -------|
||-----------------------------|-------------------------|------------ -------|


without an answer (end riff A)

|------------------------------|
|--5-----------5---------------|
|--------4-----------4---------|
|-----2-----2-----2-----2------|
|------------------------------|
|------------------------------|

Riff A
Afraid and uninvited, he slowly drifts away

Death
Veterano
# dez/03
· votar


eu sei q o Malmsteen tbm faz o uso dessa tecnica
será q alguém sabe o nome de alguma música dele q contenha pedal-point?

pagode alto astral
Veterano
# dez/03
· votar


Death

Nas composições clássicas se encontra bastante isso. Tenta Bach pra começar.

Death
Veterano
# dez/03
· votar


pagode alto astral
blz

Unknown
Veterano
# dez/03
· votar


Exemplo bom: O solo de Always with me, always with you (Satriani)...

Valeu...

yvo
Veterano
# dez/03
· votar


as musicas do Paganini sao cheias de pedal point

Lodewijk
Veterano
# dez/03
· votar


o Steve Morse usa isso também

crowley666
Veterano
# dez/03 · Editado por: crowley666
· votar


<pre>
e---15--17--13--17--12--17-------17------17------17--12
B----------------------------15------14------15--------
G------------------------------------------------------
D------------------------------------------------------
A------------------------------------------------------
E------------------------------------------------------
</pre>


<pre>
e-17--13--17--15--17~----------------------------------
B------------------------------------------------------
G------------------------------------------------------
D------------------------------------------------------
A------------------------------------------------------
E------------------------------------------------------
</pre>

A nota Lá (casa 17) eh a nota pedal
Esse lick está em Dm Harmonica

Enviar sua resposta para este assunto
        Tablatura   
Responder tópico na versão original
 

Tópicos relacionados a Pedal-point