vcs acham que exercicios de velocidade realmente a

    Autor Mensagem
    Roosevelt
    # dez/03


    vcs acham que exercicios de velocidade realmente ajudam a ganhar velocidade?

    Xalingo
    Veterano
    # dez/03
    · votar


    eu ganho velocidade treinando escalas... sei lah, tbm to apenas começando

    The Hellraiser
    Veterano
    # dez/03
    · votar


    Hehehe... O que me deu velocidade foi aquele:


    e-----------------------------------------1-3-2-4------
    B---------------------------------1-3-2-4--------------
    G-------------------------1-3-2-4----------------------
    D-----------------1-3-2-4------------------------------
    A---------1-3-2-4--------------------------------------
    E-1-3-2-4----------------------------------------------


    Funkyman
    Veterano
    # dez/03
    · votar


    Com certeza.

    Quando você for tocar uma música rápida você estara mais preparado, seus dedos terão mais elasticidade.
    Essa é a minha opinião

    Té mais !
    Flw !

    Jason
    Veterano
    # dez/03
    · votar


    no meu caso ajudou, tanto os exercícios qto as escalas. Eu recomendo

    caiohleal
    Veterano
    # dez/03
    · votar


    eu tb, e uma das coisas q mais te da velocidade é ficar tirando solos rápidos, vai pegando um, depois pega outro mais foda, depois vc vai tirar alguns solos q vc jura q nunca iria tocar em questão de minutos

    Jason
    Veterano
    # dez/03
    · votar


    caiohleal
    é, só que pra quem não tem prática, eh bom tirar um solos desses e tocar devagar e ir acelerando de acordo com a assimilação. Fica perfeito, ótimo treino!

    yvo
    Veterano
    # dez/03
    · votar


    The Hellraiser

    esse ai eu uso igualzinh, soh q pra aquecer
    Roosevelt

    claro q faz diferença, vc acha q velocidade vai vir do nada? se vc tgreina isso vc evolui pra caramba

    Blade
    Veterano
    # dez/03
    · votar


    eu acho q o que mais ajuda eh treinar escalas msm pq a sequencia de movimentos naum eh sempre a msm

    Musicman BR
    Veterano
    # dez/03
    · votar


    ouça tumeni notes do stevve morse....eu to terminando de tira na mesma velocidade.....eh uma boa musica pra velocidade......mais tem q te uma palhetada FUDIDA!!
    sao arpejos em alternada no maior pau....a velocidade eh 200bpm...!!!!

    Roosevelt
    # dez/03


    Como assim treinar escalas?

    guschard
    Veterano
    # dez/03
    · votar


    Musicman BR
    vc faz akilo na alternada????????
    nossa, eu tirei o comecinho dela na alternada e desisti
    mto foda
    steve morse eh fodaum

    GuitarHouse
    Veterano
    # dez/03
    · votar


    depende

    vc comeca a ficar rapido nesses exercicios...mas dai vc tem uma frase diferente q nao consegue fazer rapirod pq treinou velocidade e "viciou" nakele exercicio

    sempre mude de exercicio..treine uns 10 se puder..hhe

    Dimebag
    Veterano
    # dez/03
    · votar


    Muito!!
    o meu professor me deu um exercicio, depois daquele dia, passaei a tocar mauito mais!

    e------------------------------------------------------
    B------------------------------------------------------
    G------------------------------------------------------
    D------------------------------------------------------
    A---------5---------------------------------------------
    E-5-6-7-8---8-7-6---------------------------------------------


    Dave Murray
    Veterano
    # dez/03
    · votar



    e------------------------------------------------------
    B------------------------------------------------------
    G------------------------------------------------------
    D-----------------------------------------5-------------
    A---------5-------5-6-----5-6-7---5-6-7-8---6-7-8-etc..-
    E-5-6-7-8---6-7-8-----7-8-------8------------+----------


    Blade
    Veterano
    # dez/03
    · votar


    Roosevelt
    naum sei se vc faz aulas mas eu faço e to começando a ver escalas agora e ja to percebendo uma grande diferença para tirar solos

    naka
    Veterano
    # dez/03
    · votar


    pra vc ser rapido q c tem q ter toca de tudo , ser rapido é ser mecanico , tocar + rapido do q pensar
    tipo n tem 1 exercicio certo pra ser rapido c tem q ve o q abrange + movimentos intervalos saltos e etc
    tem cara q pega 1 exercicio e fica treinando sem para , po c vai toca o exercicio rapido mas no geral n , c tem q treina os + diversos movimentos

    yvo
    Veterano
    # dez/03
    · votar


    Dave Murray

    isso tem na parada de cromatismos daki do site

    Dave Murray
    Veterano
    # dez/03
    · votar


    yvo
    tem ?
    legal...eh bao esse exercicio

      Enviar sua resposta para este assunto
              Tablatura   
      Responder tópico na versão original
       

      Tópicos relacionados a vcs acham que exercicios de velocidade realmente a