Tab do solo - Fear of the dark

    Autor Mensagem
    Jimmy Hammer
    Veterano
    # nov/03


    ta ai a tab da parte do dave a otra eu eskeci dps eu passo

    e---17s19-17--16h17p16h17p6--14h16p14h16p14s12---------
    B------------------------------------------------------
    G------------------------------------------------------
    D------------------------------------------------------
    A------------------------------------------------------
    E------------------------------------------------------
    .


    e------------------------------------------------------
    B--15h17p15h17p15--------------------------------------
    G-------------------14p16h14p16p14---------------------
    D-------------------------------------14h16p14h16p14---
    A------------------------------------------------------
    E------------------------------------------------------
    .


    e-----------------17b--17--14--------14-------14-------
    B--17s19--17--14----------------17b------17b-----------
    G------------------------------------------------------
    D------------------------------------------------------
    A------------------------------------------------------
    E------------------------------------------------------
    .


    e------------------------------------------------------
    B--17--14h17p14h17p14----------------------------------
    G----------------------14h16p14h16p14---16s18----------
    D------------------------------------------------------
    A------------------------------------------------------
    E------------------------------------------------------
    .


    e---19b--19b---17-16-----------------------------------
    B---------------------17-------------------------------
    G-------------------------16-14-16--16h18p16h18p16-----
    D------------------------------------------------------
    A------------------------------------------------------
    E------------------------------------------------------
    .


    e-------------------16h17p16h17p16---------------------
    B--17h19p17h19p17--------------------17h19p17h19p17----
    G------------------------------------------------------
    D------------------------------------------------------
    A------------------------------------------------------
    E------------------------------------------------------
    .


    e------------------------------------------------------
    B--14h15p14h15p14--12h14p12h14p12----------------------
    G----------------------------------14h16p14h16p14s13---
    D------------------------------------------------------
    A------------------------------------------------------
    E------------------------------------------------------


    (essa parte a descida eh quase um arpegio)
    e----------14-14----------------14-14-----------------
    B------14-------------------14------------------------
    G--14------------14s13--14----------------------------
    D-----------------------------------------------------
    A-----------------------------------------------------
    E-----------------------------------------------------

    Jimmy Hammer
    Veterano
    # nov/03
    · votar


    merda sai tudo torto

    Ps1c0
    Veterano
    # nov/03
    · votar



    e---17s19-17--16h17p16h17p6--14h16p14h16p14s12---------
    B------------------------------------------------------
    G------------------------------------------------------
    D------------------------------------------------------
    A------------------------------------------------------
    E------------------------------------------------------
    .


    e------------------------------------------------------
    B--15h17p15h17p15--------------------------------------
    G-------------------14p16h14p16p14---------------------
    D-------------------------------------14h16p14h16p14---
    A------------------------------------------------------
    E------------------------------------------------------
    .


    e-----------------17b--17--14--------14-------14-------
    B--17s19--17--14----------------17b------17b-----------
    G------------------------------------------------------
    D------------------------------------------------------
    A------------------------------------------------------
    E------------------------------------------------------
    .


    e------------------------------------------------------
    B--17--14h17p14h17p14----------------------------------
    G----------------------14h16p14h16p14---16s18----------
    D------------------------------------------------------
    A------------------------------------------------------
    E------------------------------------------------------
    .


    e---19b--19b---17-16-----------------------------------
    B---------------------17-------------------------------
    G-------------------------16-14-16--16h18p16h18p16-----
    D------------------------------------------------------
    A------------------------------------------------------
    E------------------------------------------------------
    .


    e-------------------16h17p16h17p16---------------------
    B--17h19p17h19p17--------------------17h19p17h19p17----
    G------------------------------------------------------
    D------------------------------------------------------
    A------------------------------------------------------
    E------------------------------------------------------
    .


    e------------------------------------------------------
    B--14h15p14h15p14--12h14p12h14p12----------------------
    G----------------------------------14h16p14h16p14s13---
    D------------------------------------------------------
    A------------------------------------------------------
    E------------------------------------------------------


    (essa parte a descida eh quase um arpegio)
    e----------14-14----------------14-14-----------------
    B------14-------------------14------------------------
    G--14------------14s13--14----------------------------
    D-----------------------------------------------------
    A-----------------------------------------------------
    E-----------------------------------------------------



    =***
    vlwzão cara

    Jimmy Hammer
    Veterano
    # nov/03
    · votar


    www.jimmybase.kit.net/fear.txt

    pega ai

    Jimmy Hammer
    Veterano
    # nov/03
    · votar


    tirei tb da number of the beast dps passo vo janta fui

    Dave Murray
    Veterano
    # nov/03
    · votar


    1º Solo - Janick Gers


    e----------------------------------10-10--
    B-13-------------------------------10-10--
    G-12b-12br-10--10/--------10---12b--------
    D------------12-----------10--------------
    A-------------------10/12-----------------
    E-----------------------------------------

    .

    e-13b-13-12-10--10------------------------------
    B-------------10--13-12-10--10------------------
    G-------------------------12--12-10--10-12-10/--
    D----------------------------------12-----------
    A-----------------------------------------------
    E-----------------------------------------------

    .

    e-15b--15-13-12-13--------------------------------------
    B-----------------13--------13---------10----------------
    G-------------------------12---12-10---12b--12b-10--10~--
    D-----------------------14------------------------12-----
    A---------------------15---------------------------------
    E--------------------------------------------------------

    .

    e----------------------------------------------
    B-13-------------------------------------------
    G-12b-12br-10--10------------------------------
    D------------12--12-10--10---------------------
    A---------------------12--12-11-8-10-8---------
    E--------------------------------------10-10/--


      Enviar sua resposta para este assunto
              Tablatura   
      Responder tópico na versão original
       

      Tópicos relacionados a Tab do solo - Fear of the dark