smells like teen spirit solo

    Autor Mensagem
    The Dark Shape of Pentatonics
    Veterano
    # dez/09


    vou postar a tab deste solo pois acho q eh um ótimo solo p/ quem estah começando pois eh simples e rápido

    [T]
    e------------------------------------------------------
    B------------------------------------------------------
    G----8--10------8-8(b)--6-5-6-5-----------------------------------
    D-10--------6--------------------8-6-8(b)--6-5-6-5-6-5--6(s)5(s)3----- ------
    A------------------------------------------------------
    E------------------------------------------------------


    The Dark Shape of Pentatonics
    Veterano
    # dez/09 · Editado por: The Dark Shape of Pentatonics
    · votar


    obs: b=bend
    s=slide

    Filgoes
    Veterano
    # dez/09
    · votar


    Nirvana é realmente ótimo pra quem ta começando.
    É bonito e fácil.

    Abraço e obrigado pela contribuição ao FCC.

    jonas.hetfield
    Veterano
    # dez/09
    · votar


    The Dark Shape of Pentatonics
    legal , só arruma o BAND hehe é bend neh

    The Dark Shape of Pentatonics
    Veterano
    # dez/09
    · votar


    he he mals
    eu escrevi meio com pressa

    StratoBlues
    Veterano
    # dez/09 · Editado por: StratoBlues
    · votar


    The Dark Shape of Pentatonics

    Valeu pela contribuição. Eu tocava esse solo de um jeito diferente. Vou postar também no intúito de contribuir. A tab fica assim:

    e--------------------------------------------------------------------- -----------
    B-----3-5---4-4(b)---2-1---2-1---------------------------------------- ------
    G--4-------1-----------------------3-1----3-3(b)-1-0---1-0--1-0-1-0--- --
    D--------------------------------------------------------------------- ------3---
    A--------------------------------------------------------------------- -----------
    E--------------------------------------------------------------------- -----------


    Toque junto com a música, a última parte do 1-0 se repete algumas vezes (não me recordo).

    No mais, valeu pela contribuição.

    Abs

    lucas trigueiro
    Veterano
    # dez/09
    · votar


    StratoBlues
    eu também tocava assim...
    Valeu pela contribuição

    teksat
    Veterano
    # jun/11
    · votar


    StratoBlues

    tenho um vídeo aqi qe o kurt toca dessa forma o solo cara,na minha opnião o som é o mesmo

    erikinhoafram
    Veterano
    # jun/11
    · votar


    teksat
    troféu pá de ouro pra vc,ahuahua

      Enviar sua resposta para este assunto
              Tablatura   
      Responder tópico na versão original
       

      Tópicos relacionados a smells like teen spirit solo