qual musica que vc gostaria de tocar para aumentar o seu ego?

Autor Mensagem
leticia123
Veterano
# jun/10
· votar


Beat it - Fall out Boy

a musica não é o dificil e sim o SOLO.

aisly kotzen
Veterano
# jun/10
· votar


leticia123

rsrsrs

prefiro a versão do van hallen com o jackson

testemunha
Veterano
# jun/10 · Editado por: testemunha
· votar


Bad horsie, do steve vai, pra mim é inexplicavelmente dificel, será que eu sou tão ruim ou ela é realmente dificel mesmo? minha meta guitarristica \o/

AugustoDamned
Veterano
# jun/10
· votar


testemunha

Bad Horsie tem umas passagens beeem difíceis mesmo.

feelinguitar
Veterano
# jun/10
· votar


Tema de Crossroads, a encruzilhada. ha!

( e com o timbre da strato )

marcusbacus
Veterano
# jun/10
· votar


vi agora ali no youtube um cara tocando, fiquei com muita inveja pqp ate desanimei e larguei a guitarra pro lado

O bom do Youtube é que você também vê cada porcaria que dá um belo ânimo, algo do tipo "não sou tão ruim assim".

A coisa funciona melhor (na minha opinião) quando você toca o que você gosta, não o que te falam pra tocar. Isso foi uma das coisas que me deixava muito aborrecido nas minhas aulas de violão.

A melhor coisa pra você se sentir motivado e continuar treinando e ir tentando coisas mais "impossíveis" (impossível não é, se alguém já fez deixa de ser) é você lembrar daquela música em especial seja Metallica ou Leandro e Leonardo, e tirar "igualzinho". Não importa se seja um punk rock de 3 acordes ou uma sinfonia ou um desses shreddings malucos (que eu admiro quem faça, mas não gosto e nem chego perto) ou qualquer coisa. Sem motivação, a coisa não funciona.

Uma das melhores coisas é quando você toca algo que você sempre quis tocar, mesmo que não seja 100% perfeito, mesmo que seja um pedaço de um solo ou algo assim.

renansena777
Veterano
# jun/10
· votar


quando eu toca isso

http://www.youtube.com/watch?v=uzCiLEKWwjc

ai eu paro pq to fodao

aisly kotzen
Veterano
# jun/10
· votar


renansena777


porra o cara e bãoo..

banhaz
Veterano
# jun/10
· votar


Megadeth - Hangar 18
Joe Satriani - Crushing Day

'nough said

Vinicius Nogueira
Veterano
# jun/10 · Editado por: Vinicius Nogueira
· votar


renansena777

Espero que esteja zuando quando falou "fodão" ... Sério que vc consegue ver musicalidade nesse oceano de arpejos sem começo, meio e fim ?

victorhab
Veterano
# jun/10
· votar


Uma das melhores coisas é quando você toca algo que você sempre quis tocar, mesmo que não seja 100% perfeito, mesmo que seja um pedaço de um solo ou algo assim.

Cara, realmente, é MUITO bom quando vc começa à tocar e vai saindo igualzinho, parece até que é reprodução da musica, é muito gratificante!

Tocar Little Wing do Hendrix pra mim foi mágico, quando escutei essa musica fiquei impressionado com a melodia, fiquei totalmente hipnotizado! Depois de várias tentativas (frustantes), comecei à tirar um pouco... Já foi o bastante pra ter paciencia e tirar o resto!
Só tirei de ouvido o solo, mas quem já tentou tocar, sabe que é "ridícula" a dificuldade dessa musica...

Não sou tao pretencioso pra querer tocar um Steve Vai (qualquer uma que eu tocasse já seria suficiente), mas quando eu tocar (e improvisar) como Hendrix em Voodoo Child, posso morrer em paz.

aisly kotzen
Veterano
# jun/10
· votar


Vinicius Nogueira
Espero que esteja zuando quando falou "fodão" ... Sério que vc consegue ver musicalidade nesse oceano de arpejos sem começo, meio e fim ?


verdade cara rsrsrs s......

renansena777

cara faz o seguinte



e-----------------7-12-7------------------------------
B---------------8--------8----------------------------
G-------------9------------9--------------------------
D-----------9----------------9------------------------
A-----7--10--------------------10---------------------
E---------------------------------8-12----------------



-
e--------------8---------------------------------------
B------------8---8-------------------------------------
G----------9-------9-----------------------------------
D-------10-----------10--------------------------------
A----10-----------------10-----------------------------
E--------------------------12--------------------------



e-------------------10-15-15---------------------------
B----------------12-----------12-----------------------
G-------------12-----------------12--------------------
D----------12-----------------------12-----------------
A---10--14-----------------------------14--------------
E------------------------------------------------------



e--------------14-17-14-11-----------------------------
B-----------15-------------12--------------------------
G--------14-------------------11-----------------------
D-----16-------------------------13-----14-------------
A--17-------------------------------14-----------------
E------------------------------------------------------



Treina isso tudo ai e vai almentando a velocidade gradativamente que vc vai Fikar "fodão" do jeito que vc quer

GOREFESTA
Veterano
# jun/10 · Editado por: GOREFESTA
· votar


quando eu toca isso

http://www.youtube.com/watch?v=uzCiLEKWwjc

ai eu paro pq to fodao


E depois falam do Malmsteen...

Ah sim, queria tocar Tunnel of Pain do Coroner, para me achar o fodão

Feliphph
Veterano
# jun/10 · Editado por: Feliphph
· votar


Quetia tocar Top Gear, do Grande Oziel.
Meu ego não iria aumentar, ele estária como mulher em liquidação de roupas, mas no caso, Guitarrista em Rock in Rio.

EDIT:Caso tenha curiosidade,

NoAlarms
Veterano
# jun/10
· votar


Quero aprender a tocar o Dark Side of The Moon na integra. Muita musicalidade em um CD só. Se eu absorver qualquer coisa dali, já tenho muito a ganhar

AugustoDamned
Veterano
# jun/10
· votar


aisly kotzen
Fala champ!

Longe de mim duvidar do seu conhecimento técnico. Mas eu não poderia facilitar a digitação? ou o intuito do exercício é "trançar" os dedos mesmo? rs


e-----------------7-12-7----------------------
B---------------8--------8--------------------
G-------------9------------9------------------
D-----------9----------------9----------------
A-----7--10--------------------10---7---------
E---------------------------------8-----------

e--------------8------------------------------
B------------8---8----------------------------
G----------9-------9--------------------------
D-------10-----------10-----------------------
A----10-----------------10-7------------------
E---------------------------------------------

e-------------------10-15-15------------------
B----------------12-----------12--------------
G-------------12-----------------12-----------
D----------12-----------------------12--------
A---10--14-----------------------------14-----
E---------------------------------------------

e--------------14-17-14-----------------------
B-----------15----------16--------------------
G--------14----------------16-----------------
D-----16---------------------16--13--14-------
A--17------------------------------14---------
E---------------------------------------------


Reinaldo Camargo Filho
Veterano
# jun/10
· votar


Creio que quando nós conseguimos tocar as músicas que consideramos fodonas, nós queremos tocar outras mais fodas ainda, criando assim um cíclo vicioso de boa qualidade, poderia até ser considerado um cíclo virtuoso.

Eu gostaria de tirar Bloodmeat do Protest The Hero, Shadows Hunter - Angra, Temple of Hate - Angra, Bone Marrow - Protest The Hero, Sea of Lies - Symphony X, etc.

SpectrosGuitarman
Veterano
# jun/10
· votar


ou 5150, ou Ice Cream Man ou Hot for the Teacher, do mestre

erick_guitar
Veterano
# jun/10
· votar


Não diria que gostaria de tocar essas musicas para aumentar meu ego, mas sim para eu ver minha evolução musicalmente e ficar muito feliz por tirar essas grandes músicas.

Glória - Oficina G3, Cry for You - Andy timmons, Eletric gypsy - Andy Timmons, Cool 9# - Joe Satriani.

Heaffy
Veterano
# jun/10
· votar


poora protest the hero é cabuloso, aqles tappings deles são lindos.
mas o dia q eu tocar technnical difficulties do Paul Gilbert e Eruption do VH ai sim eu vou tirar onda shaushaushuas

Pol xD
Veterano
# jun/10
· votar


Eu tinha algumas metas quando comecei com guitarra rs

- Through the fire and flames [OK]
- Mr Crowley [OK]
- Canon rock [OK]
- Cliffs of Dover [OK]
- Far Beyond the Sun [+/-]
- Stratosphere [OK]
- Paradise city solo final [+/-]
- Top gear theme [Falta a intro com arpejos fodas haiusuas]
- Technical Difficulties [Ainda nao peguei o solo]

SONHO EXTREME ATUAL:

TUMENI NOTES (É IMPOSSÍVEL TOCAR ESSA PORRA, P*** QUE P****]

Tem mais algumas... mas vou tirando aos poucos.. como dá (:

Feliphph
Veterano
# jun/10 · Editado por: Feliphph
· votar


Fodão é esse cara;
Putz, como o cara consegue Tocar nisso?





aisly kotzen
Veterano
# jun/10
· votar


AugustoDamned

ou cara , disculpa ai se eu errei auguma coisa...

mais ... não consegui entender o que vc falow....
isso e um execicio que eu passo sempre por's meu alunos quando vou lessionar arpejos... tirei ele da apostila da IG&T
me explica direitinho ai o que que eu errei
e desculpe....

Heaffy
[i]mas o dia q eu tocar technnical difficulties do Paul Gilbert e Eruption do VH ai sim eu vou tirar onda


cara nem me fala nessa porra que eu fikei 1 semana pra tirar e ate agora ainda num ta perfeita igual ao Gilbert...
ate compartilhei o andamento de eu tirando essa musica aqui nesse topico ...la nas primeiras paginas ainda ... rsrsr

aisly kotzen
Veterano
# jun/10
· votar


Feliphph

V...T...N...Cù que que é isso ai
quantas cordas tem essa porra???

AugustoDamned
Veterano
# jun/10 · Editado por: AugustoDamned
· votar


aisly kotzen

Que isso, brother.
Nada de desculpas. Tu não errou nada!

Minha dúvida é somente se eu não posso trocar a digitação.
Pegando o último como exemplo:

e--------------14-17-14-11-------------------
B-----------15-------------12----------------
G--------14-------------------11-------------
D-----16-------------------------13-----14---
A--17-------------------------------14-------
E--------------------------------------------


Ao invés de digitar 11 12 11 (cordas E B G),
Tocar 16 16 16 (cordas B G D)

e--------------14-17-14----------------------
B-----------15----------16-------------------
G--------14----------------16----------------
D-----16----------------------16--13--14-----
A--17-------------------------------14-------
E--------------------------------------------


Dessa maneira, ficaria mais fácil pra mim.
É isso.

Abraço!

Filhada
Veterano
# jun/10
· votar


Devido a um trabalho de escola(literatura), com o tema gótico, acabei achando essa música:
ai to kanashimi no nocturne-Versailles

Mutho Duida!

PS:não sou gótico, mas achei incrivel o solo.

Curly
Veterano
# jun/10
· votar


Saber uma música, por mais difícil que seja não aumenta o ego de ninguém... ainda bem. A razão disso é que quando vc aprende a música a ponto de executá-la satisfatóriamente vc já enjoou dela e está interessado em outra... será que alguém aqui já passou por isso ?

Les Guitar
Veterano
# jun/10
· votar


Galera vendo o video do Oziel deu pra ver quando ele fez os arpeggios no começo do solo que ele nao usou palhetada alternada pra subida, ele meio que arrastou a palheta, estou certo? Se sim, qual o nome dessa 'técnica'?

Foi mal to perdidaço nesse lance de arpeggio e licks mais rapidos, coisa que ainda nao dominei (nem tentei dominar, falta paciência)

MaiconOX
Veterano
# jun/10
· votar


Pra mim seria satisfatório tocar Glassgow Kiss do Petrucci igualzinho como ele toca no G3 Live in Tokyo!

Guilherme 90
Veterano
# jun/10
· votar


Ten Years Gone - Led Zeppelin
Foxy Lady - Jimi Hendrix

Enviar sua resposta para este assunto
        Tablatura   
Responder tópico na versão original
 

Tópicos relacionados a qual musica que vc gostaria de tocar para aumentar o seu ego?