Exercícios de velocidade!!!!!!!!!!!

    Autor Mensagem
    Energy
    Veterano
    # nov/03


    tirados de guitarplayers, internet e adaptações

    Energy
    Veterano
    # nov/03
    · votar


    Aquecimento
    ------------------------------------5-6-7-8-
    -----------------------------5-6-7-8--------
    ----------------------5-6-7-8---------------
    ---------------5-6-7-8----------------------
    --------5-6-7-8-----------------------------
    -5-6-7-8------------------------------------
    outras digitações: 5 8 6 7, 6 5 8 7, 5 7 6 8, etc

    ---------------------------------
    ---------------------------------
    -5-5-5-5-5-5-5-5-5-5-5-5-5-5-5-5-
    ---------------------------------
    ---------------------------------
    ---------------------------------

    Exercícios
    ---------------------------------------------------------
    ---------------------------------------------------------
    -5-4-3-2-6-5-4-3-...-22-21-20-19-21-20-19-18-...-5-4-3-2-
    ---------------------------------------------------------
    ---------------------------------------------------------
    ---------------------------------------------------------

    ---------------------------------------------------------
    ---------------------------------------------------------
    -2-3-4-5-3-4-5-6-...-19-20-21-22-18-19-20-21-...-2-3-4-5-
    ---------------------------------------------------------
    ---------------------------------------------------------
    ---------------------------------------------------------

    ---------------------------------------------------------
    ----------------------------------------------------15^^-
    -2222-4444-5555-7777-9999-11111111-12121212-14141414-----
    ---------------------------------------------------------
    ---------------------------------------------------------
    ---------------------------------------------------------

    ---------------------------------7-7-7-7-12-
    --------------------------9-9-9-9-----------
    -------------------9-9-9-9------------------
    --------10-10-10-10-------------------------
    -7-7-7-7------------------------------------
    --------------------------------------------
    Sequências
    ------5-7-8-----8-7-5----------------5---------8-7-5---5-7-
    -5-6-7---------------8-6-5-----5-6-8---8-6-----------8-----
    -----------------------------------------------------------
    -----------------------------------------------------------
    -----------------------------------------------------------
    -----------------------------------------------------------

    -5h7p5h7p5h8p5h8p5h9p5h9p5-
    ---------------------------
    ---------------------------
    ---------------------------
    ---------------------------
    ---------------------------

    --------------------------------------------------5-7-8-7-
    ---------------------------------------------5-7-8--------
    ----------------------------------2-4-5-2-4-5-------------
    -----------------------2-4-5-2-4-5------------------------
    ------------2-3-5-2-3-5-----------------------------------
    -2-3-5-2-3-5----------------------------------------------

    ------------------------------8-10-13-
    -----------------------8-10-13--------
    -----------------5-7-10---------------
    -----------5-7-10---------------------
    ------3-5-8---------------------------
    -3-5-8--------------------------------

    ---------------------------7-8-10-
    ---------------------7-8-10-------
    ----------------4-5-7-------------
    -----------4-5-7------------------
    ------2-3-5-----------------------
    -2-3-5----------------------------

    ----------------------------8-10-12-
    ---------------------8-10-12--------
    ----------------5-7-9---------------
    -----------5-7-9--------------------
    ------3-5-7-------------------------
    -3-5-7------------------------------

    --------------------------------10-12-14-
    ------------------------10-12-13---------
    -----------------7-9-11------------------
    -----------7-9-10------------------------
    ------5-7-9------------------------------
    -5-7-8-----------------------------------

    ------5-7-8------7-8-10-------8-10-12--------10-12-13-------
    -5-6-8-----6-8-10------8-10-12-------10-12-13-------12-13-15
    ------------------------------------------------------------
    ------------------------------------------------------------
    ------------------------------------------------------------
    ------------------------------------------------------------
    continuação
    -12-13-15--------13-15-17--------15-17-19--------17-19-20-
    ---------13-15-17--------15-17-18--------17-18-20---------
    ----------------------------------------------------------
    ----------------------------------------------------------
    ----------------------------------------------------------
    ----------------------------------------------------------
    Escalas
    a)Modos Gregos- G

    Jônio
    -------------------------------5-7-8-
    -------------------------5-7-8-------
    -------------------4-5-7-------------
    -------------4-5-7-------------------
    -------3-5-7-------------------------
    -3-5-7-------------------------------

    Dório
    --------------------------------7-8-10-
    -------------------------7-8-10--------
    -------------------5-7-9---------------
    -------------5-7-9---------------------
    -------5-7-9---------------------------
    -5-7-8---------------------------------

    Frígio
    -------------------------------------8-10-12-
    -----------------------------8-10-12---------
    ----------------------7-9-11-----------------
    ---------------7-9-10------------------------
    --------7-9-10-------------------------------
    -7-8-10--------------------------------------

    Lídio
    ------------------------------------------10-12-14-
    ---------------------------------10-12-13----------
    -------------------------9-11-12-------------------
    -----------------9-10-12---------------------------
    ---------9-10-12-----------------------------------
    -8-10-12-------------------------------------------

    Mixolídio
    ----------------------------------------------12-14-15-
    -------------------------------------12-13-15----------
    ----------------------------11-12-14-------------------
    -------------------10-12-14----------------------------
    ----------10-12-14-------------------------------------
    -10-12-14----------------------------------------------

    Eólio
    ----------------------------------------------14-15-17-
    -------------------------------------13-15-17----------
    ----------------------------12-14-16-------------------
    -------------------12-14-16----------------------------
    ----------12-14-15-------------------------------------
    -12-14-15----------------------------------------------

    Lócrio
    ----------------------------------------------15-17-19-
    -------------------------------------15-17-19----------
    ----------------------------14-16-17-------------------
    -------------------14-16-17----------------------------
    ----------14-15-17-------------------------------------
    -14-15-17----------------------------------------------

    Energy
    Veterano
    # nov/03
    · votar


    deu uns pobrema, mas nao tem nenhuma nota junta entao as q parecem estar juntas e so tokar para frente
    valeu ai

    Overdoser
    Veterano
    # nov/03
    · votar



    Aquecimento
    ------------------------------------5-6-7-8-
    -----------------------------5-6-7-8--------
    ----------------------5-6-7-8---------------
    ---------------5-6-7-8----------------------
    --------5-6-7-8-----------------------------
    -5-6-7-8------------------------------------
    outras digitações: 5 8 6 7, 6 5 8 7, 5 7 6 8, etc

    ---------------------------------
    ---------------------------------
    -5-5-5-5-5-5-5-5-5-5-5-5-5-5-5-5-
    ---------------------------------
    ---------------------------------
    ---------------------------------

    Exercícios
    ---------------------------------------------------------
    ---------------------------------------------------------
    -5-4-3-2-6-5-4-3-...-22-21-20-19-21-20-19-18-...-5-4-3-2-
    ---------------------------------------------------------
    ---------------------------------------------------------
    ---------------------------------------------------------

    ---------------------------------------------------------
    ---------------------------------------------------------
    -2-3-4-5-3-4-5-6-...-19-20-21-22-18-19-20-21-...-2-3-4-5-
    ---------------------------------------------------------
    ---------------------------------------------------------
    ---------------------------------------------------------

    ---------------------------------------------------------
    ----------------------------------------------------15^^-
    -2222-4444-5555-7777-9999-11111111-12121212-14141414-----
    ---------------------------------------------------------
    ---------------------------------------------------------
    ---------------------------------------------------------

    ---------------------------------7-7-7-7-12-
    --------------------------9-9-9-9-----------
    -------------------9-9-9-9------------------
    --------10-10-10-10-------------------------
    -7-7-7-7------------------------------------
    --------------------------------------------
    Sequências
    ------5-7-8-----8-7-5----------------5---------8-7-5---5-7-
    -5-6-7---------------8-6-5-----5-6-8---8-6-----------8-----
    -----------------------------------------------------------
    -----------------------------------------------------------
    -----------------------------------------------------------
    -----------------------------------------------------------

    -5h7p5h7p5h8p5h8p5h9p5h9p5-
    ---------------------------
    ---------------------------
    ---------------------------
    ---------------------------
    ---------------------------

    --------------------------------------------------5-7-8-7-
    ---------------------------------------------5-7-8--------
    ----------------------------------2-4-5-2-4-5-------------
    -----------------------2-4-5-2-4-5------------------------
    ------------2-3-5-2-3-5-----------------------------------
    -2-3-5-2-3-5----------------------------------------------

    ------------------------------8-10-13-
    -----------------------8-10-13--------
    -----------------5-7-10---------------
    -----------5-7-10---------------------
    ------3-5-8---------------------------
    -3-5-8--------------------------------

    ---------------------------7-8-10-
    ---------------------7-8-10-------
    ----------------4-5-7-------------
    -----------4-5-7------------------
    ------2-3-5-----------------------
    -2-3-5----------------------------

    ----------------------------8-10-12-
    ---------------------8-10-12--------
    ----------------5-7-9---------------
    -----------5-7-9--------------------
    ------3-5-7-------------------------
    -3-5-7------------------------------

    --------------------------------10-12-14-
    ------------------------10-12-13---------
    -----------------7-9-11------------------
    -----------7-9-10------------------------
    ------5-7-9------------------------------
    -5-7-8-----------------------------------

    ------5-7-8------7-8-10-------8-10-12--------10-12-13-------
    -5-6-8-----6-8-10------8-10-12-------10-12-13-------12-13-15
    ------------------------------------------------------------
    ------------------------------------------------------------
    ------------------------------------------------------------
    ------------------------------------------------------------
    continuação
    -12-13-15--------13-15-17--------15-17-19--------17-19-20-
    ---------13-15-17--------15-17-18--------17-18-20---------
    ----------------------------------------------------------
    ----------------------------------------------------------
    ----------------------------------------------------------
    ----------------------------------------------------------
    Escalas
    a)Modos Gregos- G

    Jônio
    -------------------------------5-7-8-
    -------------------------5-7-8-------
    -------------------4-5-7-------------
    -------------4-5-7-------------------
    -------3-5-7-------------------------
    -3-5-7-------------------------------

    Dório
    --------------------------------7-8-10-
    -------------------------7-8-10--------
    -------------------5-7-9---------------
    -------------5-7-9---------------------
    -------5-7-9---------------------------
    -5-7-8---------------------------------

    Frígio
    -------------------------------------8-10-12-
    -----------------------------8-10-12---------
    ----------------------7-9-11-----------------
    ---------------7-9-10------------------------
    --------7-9-10-------------------------------
    -7-8-10--------------------------------------

    Lídio
    ------------------------------------------10-12-14-
    ---------------------------------10-12-13----------
    -------------------------9-11-12-------------------
    -----------------9-10-12---------------------------
    ---------9-10-12-----------------------------------
    -8-10-12-------------------------------------------

    Mixolídio
    ----------------------------------------------12-14-15-
    -------------------------------------12-13-15----------
    ----------------------------11-12-14-------------------
    -------------------10-12-14----------------------------
    ----------10-12-14-------------------------------------
    -10-12-14----------------------------------------------

    Eólio
    ----------------------------------------------14-15-17-
    -------------------------------------13-15-17----------
    ----------------------------12-14-16-------------------
    -------------------12-14-16----------------------------
    ----------12-14-15-------------------------------------
    -12-14-15----------------------------------------------

    Lócrio
    ----------------------------------------------15-17-19-
    -------------------------------------15-17-19----------
    ----------------------------14-16-17-------------------
    -------------------14-16-17----------------------------
    ----------14-15-17-------------------------------------
    -14-15-17----------------------------------------------


    Overdoser
    Veterano
    # nov/03
    · votar


    corrigido...

    Eagle
    Veterano
    # nov/03
    · votar


    valeu ai

      Enviar sua resposta para este assunto
              Tablatura   
      Responder tópico na versão original
       

      Tópicos relacionados a Exercícios de velocidade!!!!!!!!!!!