Riffs

    Autor Mensagem
    Marco Fazla
    Veterano
    # out/03


    Alguem poderia me dizer a escala de riffs p/ guitarra..
    Valeu

    Peladex
    Veterano
    # out/03
    · votar


    Qualquer escala q vc usar(maior, menor, pentatonica) dah p/ criar um riff! Depende do seu estilo! P/ o rock eu acho bem legal usar a pentatonica menor! Sai umas parada bem legal!!!

    Marco Fazla
    Veterano
    # out/03
    · votar


    eu quero saber tipo....

    primeira casa primeira corda F
    terceira casa segunda corda C

    assim...

    Peladex
    Veterano
    # out/03
    · votar


    C tah viajando????

    Marco Fazla
    Veterano
    # out/03
    · votar


    hahahah....é q nao sei como explicar...
    por ex ...uma musica do raimundos....tem o C...
    pra tocar vc nao vai fazer o dó normalmente...vc tem q fazer tipo um riff....entendeu ?

    Dave Murray
    Veterano
    # out/03
    · votar


    tpw vc quer saber o nome das casas de cada corda, eh isso?
    se for eu posto aqui, se nao for, pra saber o riff ai ele tah dentro de uma escala...procura por uma tab ou tira de ouvido...

    Peladex
    Veterano
    # out/03 · Editado por: Peladex
    · votar


    Vc deve estar falando de power chord entaum!
    Tipo esse C q vc tah falando se faz assim:



    e------------------------------------------------------
    B------------------------------------------------------
    G------------------------------------------------------
    D-5----------------------------------------------------
    A-3----------------------------------------------------
    E------------------------------------------------------

    Eh isso??

    Dave Murray
    Veterano
    # out/03
    · votar


    Peladex
    acho q saiu com problema tua tab...hehehe


    e------------------------------------------------------
    B------------------------------------------------------
    G------------------------------------------------------
    D--5----------------------------------------------------
    A--3----------------------------------------------------
    E------------------------------------------------------


    Dave Murray
    Veterano
    # out/03
    · votar


    hehehehehehe

    Peladex
    Veterano
    # out/03
    · votar


    Eh, hehehe, acabei de concertar aki!

    Dave Murray
    Veterano
    # out/03
    · votar


    ainda nao cmpreendi totalmente oq o krinha quis dizer...

    Marco Fazla
    Veterano
    # out/03
    · votar


    é isso mesmo galera...
    é tipo o nome das casas de cada corda...

    Peladex
    Veterano
    # out/03
    · votar


    Eu tbm não, ele deve taha achando q riff eh o mesmo q power chord!
    Eu tbm achava qdo tava começando!

    Dave Murray
    Veterano
    # out/03
    · votar


    E F F# G G# A A# B C C# D D# E F F# G G# A A# B C C# D D#
    B C C# D D# E F F# G G# A A# B C C# D D# E F F# G G# A A#
    G G# A A# B C C# D D# E F F# G G# A A# B C C# D D# E F F#
    D D# E F F# G G# A A# B C C# D D# E F F# G G# A A# B C C#
    A A# B C C# D D# E F F# G G# A A# B C C# D D# E F F# G G#
    E F F# G G# A A# B C C# D D# E F F# G G# A A# B C C# D D#

    A PRIMEIRA NOTA EH A CORDA SOLTA...DEPOIS EH AS NOTAS RESPECTIVAS...1,2,3...ATEH A 23....

    Dave Murray
    Veterano
    # out/03
    · votar


    se vc reparar bem...as notas das cordas soltas equivalem as notas das cordas pressionadas na casa 12...portanto as notas das casas 0 ateh 11 sao iguais as notas da 12 ateh 23...

    Marco Fazla
    Veterano
    # out/03
    · votar


    é tipo assim cara...

    F - G - A
    C D

    manja ?

    primeira corda primeira casa, equivale a um Fá ( 1-3-3)
    primeira corda terceira casa,................G ( 3-5-5 )

    Marco Fazla
    Veterano
    # out/03
    · votar


    deve ser esse power chord mesmo...

    Dave Murray
    Veterano
    # out/03
    · votar


    ahh...sao power chords...isso sao acorde com 5º


    e------------------------------------------------
    B-FA-SOL-LA-LA-SI-DO-RE-MI-----------------------
    G------------------------------------------------
    D------------2--4--5-7--9------------------------
    A-3---5---7--0--2--3-5--7---E ASSIM POR DIANTE...
    E-1---3---5--------------------------------------


    Pega essa tabela q eu te passei do nome das casa pra localizar cada nota e formar os acordes e tal..

    Marco Fazla
    Veterano
    # out/03
    · votar


    mó treta....hehe

    Dave Murray
    Veterano
    # out/03
    · votar


    facin facin..hehehe

    Marco Fazla
    Veterano
    # out/03
    · votar


    nao da pra fazer uma tabelinha tipo assim...

    F essa nao sei G nao sei A
    nao sei C D

    é mais facil....nao quero saber teoria....quero na pratica mesmo...

    Kurt_Gangrel
    Veterano
    # out/03
    · votar


    naum eh riff cara, eh power chord
    ante eu tbm achava q era riff, hauha

    rka
    Veterano
    # out/03
    · votar


    tipo... eh mais facil vc com o tempo ir memorizando isso, pq depois q vc memorizar e saber a teoria, vc monta qq acorde... isso ajuda mto pra improvisar ou se vc tive tocando e se perder no meio

    Overdoser
    Veterano
    # out/03
    · votar



    e------------------------------------------------------
    B------------------------------------------------------
    G------------------------------------------------------
    D------------------------------------------------------
    A-----------0---0--------------------------------
    E--0-0-1-2----2---2-2-1-0-......---------------------


    Dave Murray
    Veterano
    # out/03
    · votar


    Overdoser
    come as you are ?
    auhaeuheuhauehuaeae

    Kurt_Gangrel
    Veterano
    # out/03
    · votar


    eu bati o olho e vi q era come as you are
    acho q todo mundo aprende essa

      Enviar sua resposta para este assunto
              Tablatura   
      Responder tópico na versão original
       

      Tópicos relacionados a Riffs