oitavas(explicações)

Autor Mensagem
jimmypagelf
Veterano
# out/03


cara eu so vejo pessoas falando em oitavas e afinações alternativa, que porra e essa? me expliquem os dois, estou muito curioso

Melodic Man
Veterano
# out/03
· votar


se vc jah passou da oitava serie nao interessa mais.

jimmypagelf
Veterano
# out/03
· votar


Melodic Man
e sem brincadeira meu

Melodic Man
Veterano
# out/03
· votar


uhuahuaauhuahahuhuahu calminha ae

Vic Wolk
Veterano
# out/03
· votar


Oitava kra. Pega uma nota, adiciona 12 casas, vai dar na merma nota uma oitava acima.

Ai, vc faz assim, afina a mizona e a lah e vai assim:

e-----------3-------------------------------------------
B--------3----------------------------------------------
G----2------0-------------------------------------------
D-2------0-----------------------------------------------
A----0---------------------------------------------------
E-0-----------------------------------------------------


Tem tb as de harmonico natural, vc bate na 5 e na 7 dps:

e-------------------------7-----------------------------
B----------------------5--------------------------------
G-----------------7-------------------------------------
D----------7---5-----------------------------------------
A----7--5------------------------------------------------
E-5-----------------------------------------------------

Acontece q eu num sei onde faz a afinacao da si nesse metodo, pq eu descobri isso ai sozinho, dai num faco ideia como afina a si por harmonico.

jimmypagelf
Veterano
# out/03
· votar


Vic Wolk
valeu pela esplicação vc me tirou uma duvida chata, mas se alguem ai quiser me explicar melhor sei la, poder me falara ai valeu

Vic Wolk
Veterano
# out/03
· votar


tem a q eu sempre usava:

e-------------0-----------------------------------------
B----------0--5------------------------------------------
G-------0--4---------------------------------------------
D----0--5------------------------------------------------
A-0--5---------------------------------------------------
E-5-----------------------------------------------------


jimmypagelf
Veterano
# out/03
· votar


Vic Wolk
quer dizer as oitavas e um aorde ou solo ou afinação so que depois da 12° casa?

Vic Wolk
Veterano
# out/03
· votar


eh, isso ae, se isso fizer c entender mais biito.

Mas a ideia pra afinar eh q, o mermo 0 q vc toca na mizona eh o 2 da reh, soh q uma oitava acima.

jimmypagelf
Veterano
# out/03
· votar


porra valeu mesmo meu broder, ate a vista aiVic Wolk

Vic Wolk
Veterano
# out/03
· votar


;)

John Andrade
Veterano
# out/03
· votar


Vic Wolk
e-------------0-----------------------------------------
B----------0--5------------------------------------------
G-------0--4---------------------------------------------
D----0--5------------------------------------------------
A-0--5---------------------------------------------------
E-5-----------------------------------------------------


Isso não é oitavado... e sim uníssono... são as mesmas notas, nas mesmas oitavas, só que tocadas em cordas separadas.

niredsystalironledfloyd
Veterano
# out/03
· votar


Vic Wolk
ensino errado! vc e recordista disso heheheh!

Maneco
Veterano
# out/03
· votar


owwww gente eu tenho uma SG e tentei afinar as oitavas hj... Só que nao deu mto certo.

Alguém pode dar mais explicacoes, tipo passo-a-passo pra isso?? Eu afinei apertando os parafusos da ponte soh que nao mudava nada... Continuava mto desafinado..

E vcs acham que eu posso me arriscar a tentar de novo? eheheh

naka
Veterano
# out/03
· votar


pensei q ele tava falando sobre regula as oitavas

conte
Veterano
# out/03
· votar


oitavas seriam a mesma nota soh q mais aguda ou ou mais grave

guschard
Veterano
# out/03
· votar


oitava saum 12 semitons a frente

Prima - Zero semitons(a própria nota)
Segunda Menor - 1/2 tom
Segunda Maior - 1 tom
Terça Menor - 1 tom e 1/2
Terça maior - 2 tons
Quarta Justa - 2 tons e 1/2
Quarta aumentada - 3 tons
Quinta diminuta - 3 tons
Quinta justa - 3 tons e 1/2
Quinta aumentada - 4 tons
Sexta menor - 4 tons
Sexta maior - 4 tons e 1/2
Sétima diminuta - 4 tons e 1/2
Sétima menor - 5 Tons
Sétima maior - 5 tons e 1/2
Oitava - 6 tons ou 12 semitons

c estiver errado corrijam, pq eu so escrevi rapido, nem deu tempo d ler

guschard
Veterano
# out/03
· votar


e como o conte falou, oitava eh a mesma nota, soh q mais grave ou mais aguda

Vic Wolk
Veterano
# out/03
· votar


John Andrade
isso eh uma afinacao coisa esperta. Le o topico.

Vic Wolk
Veterano
# out/03
· votar


cara eu so vejo pessoas falando em oitavas e afinações alternativa, que porra e essa? me expliquem os dois, estou muito curioso

Cassio
Veterano
# out/03
· votar


Oitava não tem nada a ver com afinaçao diferente.
OITAVA É A MESMA NOTA, SÓ QUE MAIS AGUDA, OU VICE-VERSA.
AFINAÇÃO DIFERENTE: AO INVÉS DE AFINAR NORMAL EADGBe, faz , por ex E virar F, etc e tal
T+

Vic Wolk
Veterano
# out/03
· votar


Eh, isso eh um ponto. Num tem como saber oq ele qria dizer.

JaCaMaN
Veterano
# out/03
· votar


UMA oitava vai sempre ser ela mesma
A-tonica
B-nona
C-terça
D-quarta
E-quinta
F-sexta
G-sétima
A-OITAVA<-------


na prática

E|-----0-0------------normal

E|-----12-12----------na oitava

George
Veterano
# out/03
· votar


Cacildes! Nunca vi um topico tão enrolado e mau explicado! iuhaiahuiauhaiuha!

Vamos por partes:

1) Oitava, como o conte falou: É a mesma nota só que mais aguda ou mais grave!

exemplo:


e------------------------------------------------------
B------------------------------------------------------
G------------------------------------------------------
D--Tanto-uma-quanto-a-outra-são-Sol--------------------
A---mas-uma-é-a-oitava-da-outra------------------------
E-3---15-----------------------------------------------


2) Acorde oitavado, nada mais é do que o mesmo acorde só que em outro lugar!

Exemplo:


e------------------------------------------------------
B------------------------------------------------------
G-------9----------------------------------------------
D--5----9----------------------------------------------
A--5---10----------------------------------------------
E--3---------------------------------------------------


3)Afinação das oitavas, é arrumar a afinação das 12ªs casas!

Mesmo com as cordas soltas afinadas (EADGBe) algumas vezes as notas na 12ª casa não estão com essas mesmas notas! Então o guitarrista é obrigado a afinar as oitavas, essa afinação é feita na ponte da guitarra! Nesse caso acho que vale mais pedir prum luthier fazer isso quando você levar ela num check-up!

4)Afinações alternativas, Isso nada mais é do que simplesmente afinar a guitarra em outras notas... o que vai mudar é que você vai ter que fazer os acordes de maneiras diferentes mas em compensação você consegue deixa a guitarra com um som mais pesado e talz..

Falow! Espero ter ajudado! =o)

JaCaMaN
Veterano
# out/03
· votar


George foi o cara mais enrolou

George
Veterano
# out/03
· votar


JaCaMaN
iuahiuahiauhiauha

ok, ok!

Mallon
Veterano
# set/04
· votar


Qual a espessura de corda que exige um menor tamanho para a escala na hora de regular os sadles 08 ou 013?

Mallon
Veterano
# set/04
· votar


A afinação tb interfere na posição dos sadles? Uma afinação mais alta exige que os sadles estejam mais perto ou mais longe do braço?

anonimo_83
Veterano
# set/04
· votar


Esse tópico é uma piada!!!
(no caso de alguns que postaram)

Mallon
Veterano
# set/04
· votar


Balbino Junior
Ai, tu sabe a resposta dessas perguntas que eu fiz?

Enviar sua resposta para este assunto
        Tablatura   
Responder tópico na versão original
 

Tópicos relacionados a oitavas(explicações)