Exercicios

Autor Mensagem
White_Wolf
Veterano
# out/03


Aew galera, alguem pode me mostrar algum exercicio pra dar mais agilidade pro dedo 4 (mínimo), pq tenho um pouco de dificuldade com ele.E tambem se fosse possivel algum exercicio pra velocidade!!

Vlws desde jah!!!

FLWS :)

guschard
Veterano
# out/03
· votar


White_Wolf
faz ligados com tdos os dedos

Dave Murray
Veterano
# out/03 · Editado por: Dave Murray
· votar


vi isso q o guschard falou numa aula com o Adrian Smith..e eh uma boa kra...eh tpw assim..


<pre>
e--------------------------------------------------------
B--------------------------------------------------------
G-5h6p5h6p5h6-5h7p5h7p5h7-5h8p5h8p5h8-5h7p5h7p5h7-...etc-
D--------------------------------------------------------
A--------------------------------------------------------
E--------------------------------------------------------
</pre>

segura com o dedo indicador na casa 5 e martela
com o dedo 2 na casa 6, depois martle na casa 7
com o dedo 3 e martela na casa 8 com o dedo 4...
faz isso varias vezes..cria uma sequencia pra
treinar se vc quiser...etc..etc

Homem Cueca
Veterano
# out/03
· votar


faça a introduçao de tunderstruck do ac/dc ..... eh mto boa msm..........eh um otimo exercicio...eh assim:

e------------------------------------------------------
B-h4p0h7p0h4p0h4p0h5p0h5p0h5p0h4p0h4p0h4p0h12p0h9p0h10p0h9p0h7p0h9p0h7 p0h5p0h4p0h4p0 etc...-----------------------------------------------------
G------------------------------------------------------
D------------------------------------------------------
A------------------------------------------------------
E------------------------------------------------------


Dave Murray
Veterano
# out/03
· votar


lembrei de uma boa....aprenda a tokar TRANSYLVANIA do maiden...exercio muito bom...

kava
Veterano
# out/03
· votar


vai subindo de descendo fazendo os exercicios

e-----------------------------------------1-2-3-4----------
B---------------------------------1-2-3-4------------------
G-------------------------1-2-3-4--------------------------
D-----------------1-2-3-4----------------------------------
A---------1-2-3-4------------------------------------------
E-1-2-3-4--------------------------------------------------


ae vai mudando a ordem dos dedos.. comeca devagar
e vai aumentando a velocidade

palhete alternadamente


e-----------------------------------------1-3-2-4----------
B---------------------------------1-3-2-4------------------
G-------------------------1-3-2-4--------------------------
D-----------------1-3-2-4----------------------------------
A---------1-3-2-4------------------------------------------
E-1-3-2-4--------------------------------------------------


Dave Murray
Veterano
# out/03
· votar


essa do kava tbm eh boa...vai nessa...

kava
Veterano
# out/03
· votar


vc tb pode fazer ligados

e-----------------------------------------1h2h3h4--------
B---------------------------------1h2h3h4----------------
G-------------------------1h2h3h4------------------------
D-----------------1h2h3h4--------------------------------
A---------1h2h3h4----------------------------------------
E-1h2h3h4------------------------------------------------


Dave Murray
Veterano
# out/03
· votar


mas o bom do cromatismo eh fazer palhetado..assim jah treina palhetada...oq eh utilisssiisssssiimo

Homem Cueca
Veterano
# out/03
· votar


lembrei de um bom......a primeira parte de hot for tcheter do van halen....

e------------------------------------------------------
B------------------------------------------------------
G------------------------------------------------------
D------------------------------------------------------
A--h3h7t12p7p3p0h3h7t12p7p3p0-5h9t12p9p5p0h5h9t12p9p5p0h5~~----------- ----------------------------------------
E------------------------------------------------------

esse eh o primeiro tapping da intro.....o tapping eh maior mas eu soh botei o "execicio" msm.......

kava
Veterano
# out/03
· votar


Dave Murray

eh isso ai, nao adianta ser rapidos nos dedos se nao for rapido na palhetada

Dave Murray
Veterano
# out/03
· votar


eh isso...tudo eh um conjunto...tem q ser baum em tudo...

Homem Cueca
Veterano
# out/03
· votar


o topico esta pedindo exercicios de ligados pro dedo 4(mindinho)....eu soh estou dando exercicios q ele especificou no topico!!!

Dave Murray
Veterano
# out/03
· votar


Homem Cueca
pzh...eh oq nos estamos dizendo...os ligados ajudam, Thunderstruck ajuda, Transylvania ajuda, cromatismo ajuda, Van Halen ajuda...a parte da palhetada foi soh um comentario...

Homem Cueca
Veterano
# out/03
· votar


palhetada ajuda????num sabia.........soh se for arpejos...como esse:

e-------------7-12-7---------------------------------------
B-----------8--------8-----------------------------------
G---------9------------9---------------------------------
D-------9----------------9-------------------------------
A--7-10--------------------10-7------------------------------
E------------------------------------------------------


Dave Murray
Veterano
# out/03
· votar


Homem Cueca
nao nao...nao quis dizer q palhetada ajuda no desenvolvimento do 4 dedo, soh comentei q era importante treinar a palhetada tambem...

Homem Cueca
Veterano
# out/03
· votar


mas esse tmb eh bom pro mindinho......da casa 7(B) pra 12(E) eh uma boa distancia.......

Dave Murray
Veterano
# out/03
· votar


pra abrir os dedos (fugindo um pouco do 4 dedo) eh diatonicas...bom pra separar o dedo 1 do 2

Homem Cueca
Veterano
# out/03
· votar


o dórico eh bom pro mindinho....

e---------------------------------------13-15-17-------------
B------------------------------13-15-17----------------------
G---------------------12-14-16-------------------------------
D------------12-14-16----------------------------------------
A---12-14-15-------------------------------------------------
E------------------------------------------------------


Dave Murray
Veterano
# out/03
· votar


esse do dorico eh bom pra treinar independencia entre o dedo 3 e o 4

Homem Cueca
Veterano
# out/03
· votar


o jonico tmb eh mto bom pra independencia....

e----------------------------------5-7-8------------------
B----------------------------5-7-8------------------------
G----------------------4-5-7------------------------------
D----------------4-5-7------------------------------------
A----------3-5-7------------------------------------------
E----3-5-7------------------------------------------------


e------------------------------2-3-----------------------
B--------------------------3-5---------------------------
G--------------------2-4-5--------------------------------
D--------------2-4-5--------------------------------------
A--------2-3-5--------------------------------------------
E----3-5-------------------------------------------------


Dave Murray
Veterano
# out/03
· votar


boa pra abertura do 1 e 2

Homem Cueca
Veterano
# out/03
· votar


esse eh otimo:

e-----------------------------------------------------9-15~~
B-------------------------------------------9-15-9-15--------
G---------------------------------7-13-7-13------------------
D-----------------------7-13-7-13----------------------------
A-------------5-11-5-11--------------------------------------
E---5-11-5-11------------------------------------------------


Dave Murray
Veterano
# out/03
· votar


aehuaehaehuaehaehuaehaehuaehaehuaehaehuaehaehuaehaehuaehaehuaehaehuaeh aehuaehaehuaehaehuaehaehuaehaehuaehaehuaehaehuaehaehuaehaehuaehaehuaeh aehuaeh

Dave Murray
Veterano
# out/03
· votar


caralho !...pra tokar em pe isso eh muito phoda...

Dave Murray
Veterano
# out/03
· votar


a do 7--13 eh tranquilo mas 5--11...pqp

Homem Cueca
Veterano
# out/03
· votar


por isso eh bom Dave Murray.

Homem Cueca
Veterano
# out/03
· votar


o exercicio correto seria

e----------------------------9-16(1x)-------------------------
B-----------------------9-16(1x)------------------------------
G------------------7-14(1x)-----------------------------------
D------------7-14(1x)-----------------------------------------
A-------5-12(1x)----------------------------------------------
E--5-12(1x)---------------------------------------------------


Homem Cueca
Veterano
# out/03
· votar


eh q os meus dedos são bem grandes....

Dave Murray
Veterano
# out/03
· votar


ai eh bao....os meus n sao tao compridos...

Enviar sua resposta para este assunto
        Tablatura   
Responder tópico na versão original
 

Tópicos relacionados a Exercicios