Tab de Back in Black

    Autor Mensagem
    Errol
    # dez/02


    Alguém têm a Tab de Back In Black (ACDC) igual a que o Chorão fez no Jornal Da Mtv Especial Guitarras? tipow, num á nenhum desses dois:

    CifraClub:
    E||-------x---------x----|-------x------------|---------------------- --|
    
    B||-------x---------x----|-------x------------|---------3-3-3-------- --|
    G||--x----x----x----x----|--x----x------------|---------2-2-2------2- 2-|
    D||--x---------x---------|--x-----------------|--2------0-0-0------2- 2-|
    A||--x---------x---------|--x-----------------|--2-----------------0- 0-|
    E||----------------------|--------------------|--0------------------- --|

    ------------3-0----------|------------------------|------------------ ---------|
    ----------------3-0------|---------3-3-3----------|------------------ ---------|
    --2-----------------2r-0-|---------2-2-2------2-2-|--2--------------- ---------|
    --2----------------------|--2------0-0-0------2-2-|--2--------------- ---------|
    --0----------------------|--2-----------------0-0-|--0----2----2----2 ----2----|
    -------------------------|--0---------------------|---------4----5--- -6----7\-|


    Olga.net:

    E D D D A A A
    e---0----2-2-2---0-0-0--|----3p0----------------------------------|
    b---0----3-3-3---2-2-2--|--------3p0------------------------------|
    g---1----2-2-2---2-2-2--|------------2-0--------------------------|
    d---2----0-0-0---2-2-2--|-----------------------------------------|
    a ---2------------0-0-0--|-----------------------------------------|
    e- --0-------------------|-----------------------------------------|

    E D D D A A A
    e---0----2-2-2---0-0-0--|-----------------------------------------|
    b---0----3-3-3---2-2-2--|-----------------------------------------|
    g---1----2-2-2---2-2-2--|-----------------------------------------|
    d---2----0-0-0---2-2-2--|-----------------------------------------|
    a---2------------0-0-0--|-----------------------------------------|
    e---0-------------------|-------7-3-7-4-7-5-7-6-------------------|


    Tipow, o jeito que ele fez é com pestana, pq esses dois acima funcionam direitinho no Violão mas não saem muito bem na Guitarra.

    Errol
    # dez/02


    saiu meio errado mas eu acho q dá pra vocês entenderem o q eu quis dizer, valew..

    Errol
    # dez/02


    Só corrigindo, acho q é o Marcão o guitarrista do Charlie Brown Jr. e não o Chorão...
    E só mais uma coisa:

    UUUUUPPPPPPPP!!!!

    Unknown
    # dez/02


    com a pestana o D fica assim:


    G|-7-|
    D|-7-|
    A|-5-|
    E|---|


    E o A fica:


    D|-7-|
    A|-7-|
    E|-5-|


    Só muda isso... o jeito mais certo é o do olga...

    Errol
    # dez/02


    Valew Unknown, brigadão...

    R4M0N3S
    Veterano
    # jan/03
    · votar


    Mas como deve ser a distorção no cubo??? isso q eu num consigo faze...

    Paul Gilbert
    Veterano
    # jan/03
    · votar


    bom, mesmo sem conhecer a música AC/DC é uma distorçao mediana, com o TREBLE na***** q pariu, o BASS no 0 e o MID aonde vc quiser(no meio mesmo ehehe), ou algum pedal q eu num sei qual

    STR4NG3R
    Veterano
    # jan/03
    · votar


    eu toco ela com pestana tb.. do jeito q o unknown passo ae

    Ps1c0
    Veterano
    # jan/03
    · votar


    tbm toco do mesmo jeito do unknown!!

    Ps1c0
    Veterano
    # jan/03
    · votar


    o AC/DC tem muita mania de usar cordas soltas!!fica meio estranho!!em Highway to hell eles usam um D/F# desse jeito:
    E--2--
    A-----
    D-----
    G--2--
    B--3--
    e-----

    acho q eh assim!!eh q eu naum to com o violão aki comigo!!mas vcs vão se lembrar da posição!!
    c vc usar dirst nisso fica um***** som podre!!

      Enviar sua resposta para este assunto
              Tablatura   
      Responder tópico na versão original
       

      Tópicos relacionados a Tab de Back in Black