Exercicíos de Hammer on e Pull Off

    Autor Mensagem
    FiSH
    Veterano
    # set/03


    Galera, sou novo na guitarra e estou com dificuldades de fazer hammer e pull, gostaria de saber se vcs tem algum exercicio pra me passar ou site que tenha, pra mim me aperfeiçoar um pouco mais....
    desde já agradeço a ajuda...

    GuitarHouse
    Veterano
    # set/03
    · votar


    hehe..vo inventa um exercicio simples agora..

    e--------------------------------------------------10h12p10
    B--------------------------------------------5h8h5---------
    G---------------------------------6h9p6--------------------
    D----------------------------5h7p5-------5h7---------------
    A---------------5h7p5-5h7p5--------------------------------
    E--5h7p5-5h7p5---------------------------------------------


    p=pull off
    h=hammer on

    hehe..poe ate se transformar em um lickzin de solo..hehe
    isso ai da pra comecar....lembra muito Dave murray...hehe

    GuitarHouse
    Veterano
    # set/03 · Editado por: GuitarHouse
    · votar


    nao...da nao...o som fico ruim..hehe..
    pega esse:

    e|-----------------------------
    B|-----------------------------
    G|----------------------7h9h10-
    D|---------------7h9h10--------
    A|--------7h8h10---------------
    E|-7h8h10----------------------


    e|-----------------------------
    B|-----------------------------
    G|-10p9p7----------------------
    D|--------10p9p7---------------
    A|---------------10p8p7--------
    E|----------------------10p8p7-

    e|-------------------5h7----------------------------
    B|--------------5h7------------------------------------
    G|---------5h7-----------------------------------------
    D|---5h7--------------------5h7---------------------5h7-
    A|----------------------5h7-------------5h7---5h7------
    E|-------------------------------5h7-------------------

    e|-----------------------7p5-----------------------------
    B|-------------------7p5--------------------------------
    G|---7p5------------------------------------------------
    D|---------7p5---7p5-------------------------7p5--------
    A|----------------------------7p5---7p5---------------7p5-
    E|-------------------------------------7p5--------------


    a simbologia eh a mesma do post acima.

    yvo
    Veterano
    # set/03
    · votar


    Desce e sobe escalas com pull offs e hamer ons:

    e--------------------3h5p3--------------------------------
    B---------------3h5h6------6p5p3--------------------------
    G----------2h4h5----------------5p4p2---------------------
    D-----2h3h5--------------------------5p3p2----------------
    A--3h5------------------------------------5p3p2-----2h3---
    E----------------------------------------------5p3h5------
    ( escala natural de C)

      Enviar sua resposta para este assunto
              Tablatura   
      Responder tópico na versão original
       

      Tópicos relacionados a Exercicíos de Hammer on e Pull Off