que dueto eu posso fazer com essas notas?

    Autor Mensagem
    luis7777
    Veterano
    # out/06


    to quebrando a cabeça aqui pra tentar fazer um dueto, pra uma musica que eu estou fazendo.
    o problema eh que eu nao sei fazer isso :(
    sera que alguem tem alguma ideia?

    notas:

    E
    B
    C#
    F#
    G#
    A

    o som eh para se ficar meio macabro e tal.

    se ninguem me ajudar vou ter que fazer um dueto com uma oitava acima (coisa que eu nao gosto) e por isso, pesso ajuda de voces.

    vou dar um pirulito pra quem me ajudar..
    =D

    Midgard
    Veterano
    # out/06
    · votar


    pode dobrar em terças q fica iron maiden \m/

    JoeCruzGuitar
    Veterano
    # out/06 · Editado por: JoeCruzGuitar
    · votar


    O pirulito voce pode guardar com voce ;)

    Bom, se não fiz nenhuma cagada voce pode usar isso aqui ;

    Em terça

    E||--------------------||
    B||--------------------||
    G||--------------1--2--||
    D||-----------4--------||
    A||-----2--4-----------||
    E||--0-----------------||

    E||--------------------||
    B||--------------------||
    G||--------------4--5--||
    D||-----------7--------||
    A||-----5--7-----------||
    E||--3-----------------||


    Em quinta

    E||--------------------||
    B||--------------------||
    G||--------------1--2--||
    D||-----------4--------||
    A||-----2--4-----------||
    E||--0-----------------||

    E||--------------------||
    B||--------------------||
    G||--------------6--7--||
    D||-----------9--------||
    A||-----7--9-----------||
    E||--5-----------------||


    JoeCruzGuitar
    Veterano
    # out/06
    · votar


    o dueto em terça tá menor.

    to com preguiça de escrever as notas hehehe... olha no braço da tua guita ai que voce faz a relação e ai pode transpor pra qualquer região do braço.

    r2s2
    Veterano
    # out/06
    · votar


    aulas assim de graça eu tb quero!

      Enviar sua resposta para este assunto
              Tablatura   
      Responder tópico na versão original
       

      Tópicos relacionados a que dueto eu posso fazer com essas notas?