Alguém poderia fazer a tablatura desse solo, por favor ?!

Autor Mensagem
Fermc
Veterano
# set/06
· votar


Detalhe... Ali depois do 10h12 tem um vibrato!!! Só que eu tô tentando editar pra arrumar isso qeu eu tinha esquecido de colocar, mas o site disse que só posso colocar mensagens à cada 4 segundos... E já passou uns 5 min... :|

_Douglas_
Veterano
# set/06
· votar


Fermc
Se nao for dar muito trabalho.....tá ajudando prá caramba!

rankfussa
Veterano
# set/06
· votar


Esse forum ainda tem salvação.

Tem gente que está aqui mesmo pra um propósito de Forum.
A ajuda aos outros, e troca de informação.

APenas um aviso aos risadinhas (heuaheuahueh); dar risada todo mundo sabe, portanto isso que vcs postaram não contribuem em nada.

Mais uma vez, parabens aos Fermc, sandrao, eveee, e outros q estao ajudando o doglas.

Abracao a todos

Fermc
Veterano
# set/06
· votar


Taí a gravação do solo devagar!!

http://rapidshare.de/files/32438522/solo_devagar.mp3.html

Agora, essa parte que vem agora, tá difícil, porque o cara resolve cantar junto e aí num da pra ouvir nada da guitarra... Vou ter que deduzir o que o cara tava tentando fazer ali... Mas vai ter que sair!!! \o/

Vou tentar aumentar os médios no Winamp que acho que vai dar uma melhorada!!

_Douglas_
Veterano
# set/06
· votar


rankfussa
Concordo com vc! A galera aki tá me ajudando prá caramba mesmo !

_Douglas_
Veterano
# set/06
· votar


Fermc
Vey, acho que nessa parte rola de fazer uma embromação....aí depois já cai na parte dos 2 bends....que ce acha ?

Fermc
Veterano
# set/06
· votar


É... ele faz alguma coisa que não da pra ouvir, e depois cai em dois Bends... Eu tô tentando entender a linha melódica que ele seguiu e a partir daí tentar fazer algo parecido...

Tá saindo alguma coisa aqui... Logo eu termino... :)

_Douglas_
Veterano
# set/06
· votar


Fermc
Vey, vou precisar dar uma saída agora....amanha cedo eu entro aki!

Brigadão pela força !

Fermc
Veterano
# set/06 · Editado por: Fermc
· votar


Terminei!!! Demorei um pouco porque eu fui comer alguma coisa, e porque essa parte deu um trabalhinho extra!!

Bom, ela não ficou igual à original, mas ficou um pouco parecida... Da uma olhada nessa última parte:


---------------------------------------------------------------
---------------------------------------------------------------
----------10--10-----------------------------------------------
--10--12----------12--10------10--12--10-----------------------
--------------------------12--------------12---10--------------
---------------------------------------------------13--10--13--



---------------------------------------------------------------
-------------------------------------------------13b(15)-------
-----------------------------10--12------10--12----------------
-------------10------10--12----------12------------------------
-10--12--13------13--------------------------------------------
---------------------------------------------------------------

---------------------------------------------------15--13------
-13--11--------------13b(15)--13--11-----------------------15--
---------12--10-----------------------12--10-------------------
-----------------12---------------------------12---------------
---------------------------------------------------------------
---------------------------------------------------------------

---------------------------------------------------------------
--13------13--15--13--11-------------------------------------
------15------------------12--10------10--------------------
----------------------------------12-------------------------------
---------------------------------------------------------------
---------------------------------------------------------------


Eu vou gravar ela lenta pra você e já já eu posto aqui!!

Fermc
Veterano
# set/06
· votar


Pronto!! Tá aqui o arquivo da gravação lenta pra você ter uma base...

http://rapidshare.de/files/32445776/solo_lento__ultima_parte_.mp3.html

O solo não ficou igual, e nem próximo disso, mas ficou parecido e da pra você enganar legal!!! \o/

Bom é isso aí, se você quiser dar uma mudada pra melhorar alguma coisa, fique a vontade!!

Abraços!!

frodex
Veterano
# set/06
· votar


bom ... ja q o fermc mando neim precisa manda a tab... bom solo ....

Fermc
Veterano
# set/06
· votar


frodex

Coloca a sua aí também pra eu dar uma analisada e corrigir alguns erros da minha!!

Nebur
Veterano
# set/06
· votar


Fermc
esse cara eh um exemplo de bom usuario parabens

Fermc
Veterano
# set/06
· votar


rankfussa
Nebur

Valew aê pessoal...

É sempre bom poder ajudar... Até porque, não estou ajudando apenas o Douglas, mas também vários outros usuários, e inclusive eu mesmo, porque isso serve pra nos fazer crescer musicalmente...

Contem sempre que precisar, e no que eu puder ajudar!!! ;-)

Valew

frodex
Veterano
# set/06 · Editado por: frodex
· votar


gorinha posto ela ...

frodex
Veterano
# set/06 · Editado por: frodex
· votar



#######################################################
e13b-13b-13---8h10h8-----------------------------------
B----------------------13b-13b-15-13-11-10-----10------
G------------------------------------------12b-----10--
D------------------------------------------------------
A------------------------------------------------------
E------------------------------------------------------

$$$$$$$$$$$$$$$$$$$$$$$$$$$$$$$$$$$$$$$$$$$$$$$$$$$$$$$

#######################################################
e------------------------------------------------------
B------------------------------------------------------
G----10-12-12/14-15-14-12-10---12b--9bh7---------------
D-12------------------------12------------10-----------
A------------------------------------------------------
E------------------------------------------------------
$$$$$$$$$$$$$$$$$$$$$$$$$$$$$$$$$$$$$$$$$$$$$$$$$$$$$$$

#######################################################
e------------------------------------------------------
B------------------------------------------------------
G-------10-10------------------------------------------
D-10-12-------12h10------------------------------------
A-------------------12h10-8------------------10-8-10/12
E---------------------------8v--8-10-8-10/13-----------

$$$$$$$$$$$$$$$$$$$$$$$$$$$$$$$$$$$$$$$$$$$$$$$$$$$$$$$

#######################################################
e------------------------------------------------------
B----------------13b--15-13-11-10---------13b--15-13-11
G----------12----------------------12-10---------------
D-10-10-------10---------------------------------------
A-------12---------------------------------------------
E------------------------------------------------------

$$$$$$$$$$$$$$$$$$$$$$$$$$$$$$$$$$$$$$$$$$$$$$$$$$$$$$$

#######################################################
e----------17b--17-------------13----------------------
B-10---------------18---13-15-----(11)-11b-------------
G----12-10----------------------------------13---10----
D------------------------------------------------------
A------------------------------------------------------
E------------------------------------------------------

$$$$$$$$$$$$$$$$$$$$$$$$$$$$$$$$$$$$$$$$$$$$$$$$$$$$$$$
bom ... essa eh a minha versão desse solo .... !

_Douglas_
Veterano
# set/06
· votar


Fermc
Vey, obrigadão mesmo! As gravações ajudaram prá caramba....

frodex
Valew aí também, eu peguei algumas partes do seu solo porquê achei que ficaram mais fáceis de fazer....

tom_delonge182
Veterano
# set/06
· votar


e ESSA aqui nimguem consegue tirar o solo??

Fermc
Veterano
# set/06
· votar


frodex

Legal cara, vou dar uma olhada nela!!

Fermc
Veterano
# set/06
· votar


tom_delonge182

Cara, eu acho que dá sim... Mas num prometo nada pra hoje...

Tenho que sair daqui a pouco, nem sei que horas eu volto, e à noite eu tenho compromisso... Eu posso ver se arranjo um tempinho a tarde ou de madrugada pra fazer isso!!

tom_delonge182
Veterano
# set/06
· votar


Fermc

sem problemas cara... faz tudu que vc tem que fazer sem pressa, num esquenta cabeça!!!


brigadão!!

.:Anonimato:.
Veterano
# set/06
· votar


tom_delonge182

Acho melhor vc criar um tópico específico pra essa música, hein!

frodex
Veterano
# set/06 · Editado por: frodex
· votar


tom_delonge182

ae cara naum sei se ficou igual ao solo da musica mais tentei neh ! ta ae o arkivo gp5 e a tab se tu naum tiver o gp !
solo always

Tab


$$$$$$$$$$$$$$$$$$$$$$$$$$$$$$$$$$$$$$$$$$$$$$$$$$$$$$$
e------------------------------------------------------
B------------------------------------------------------
G------------------------------------------------------
D----9h11------9h11--------------------------2-4b--(2)-
A-11------11---------11--9b(9)h7---------2-4-----------
E--------------------------------7-7---4---------------
$$$$$$$$$$$$$$$$$$$$$$$$$$$$$$$$$$$$$$$$$$$$$$$$$$$$$$$





$$$$$$$$$$$$$$$$$$$$$$$$$$$$$$$$$$$$$$$$$$$$$$$$$$$$$$$
e------------------------------------------------------
B------------------------------------------------------
G------------------------------------------------------
D-------2-4b-(2)------2--4-4b-(2)------2-4b-(4)-2-4----
A-4-2-4----------4-2--------------4-4------------------
E------------------------------------------------------
$$$$$$$$$$$$$$$$$$$$$$$$$$$$$$$$$$$$$$$$$$$$$$$$$$$$$$$



$$$$$$$$$$$$$$$$$$$$$$$$$$$$$$$$$$$$$$$$$$$$$$$$$$$$$$$
e-----12-12-9-9-7-7-12-12-9-9-7-7----------------------
B-12b--------------------------------------------12bv--
G-------------------------------------11b(11)-9-11-----
D----------------------------------0-------------------
A------------------------------------------------------
E------------------------------------------------------
$$$$$$$$$$$$$$$$$$$$$$$$$$$$$$$$$$$$$$$$$$$$$$$$$$$$$$$




$$$$$$$$$$$$$$$$$$$$$$$$$$$$$$$$$$$$$$$$$$$$$$$$$$$$$$$
e------------12------------------------------------------
B---------14---14--14--12----14-12----12-14-14-12---12-14
G------13------------------13-------13-------------13----
D----9---------------------------------------------------
A-11-----------------------------------------------------
E--------------------------------------------------------
$$$$$$$$$$$$$$$$$$$$$$$$$$$$$$$$$$$$$$$$$$$$$$$$$$$$$$$




$$$$$$$$$$$$$$$$$$$$$$$$$$$$$$$$$$$$$$$$$$$$$$$$$$$$$$$
e12-14b-(14)-12-14--16b-14b(14)-12-----------------------
B-----------------------------------14-------------------
G--------------------------------------------------------
D--------------------------------------------------------
A--------------------------------------------------------
E--------------------------------------------------------
$$$$$$$$$$$$$$$$$$$$$$$$$$$$$$$$$$$$$$$$$$$$$$$$$$$$$$$

ahuhauhua ...eu soh acho q fico parecido ... ve ae ...

Fermc
Veterano
# set/06
· votar


frodex

Valew... me livrou dessa... hehhehe

\o/ \o/

tom_delonge182
Veterano
# set/06
· votar


frodex
se tiro do link que eu passei?? tenho a impressão que esso solo é a da versão de estudio, até msm pq essa musica tem 2 solos

tom_delonge182
Veterano
# set/06
· votar


bom... na verdade tenho certeza que esse solo é o de estudio...

anonymous4
Veterano
# set/06
· votar


ehauhae fazia tempo que não via nego ajudando um ao outro aqui!
Beleza gnt!

Eu num posso ajudar pq tbm sou meio ruim em tirar coisas de ouvido... mas eh um solo legal!

frodex
Veterano
# set/06 · Editado por: frodex
· votar


tom_delonge182

sim.. sim ... ate pq eu ja conhecia essa musica.. soh d ouvido ... hauhauahuhauhau... o 2 solo neim tirei..... preguiça ... mais num eh taum dificl assim naum .. soh ter calma ..

Enviar sua resposta para este assunto
        Tablatura   
Responder tópico na versão original
 

Tópicos relacionados a Alguém poderia fazer a tablatura desse solo, por favor ?!