Introduçao de top gear(tab) pra vcs!

    Autor Mensagem
    Bilyson
    Veterano
    # abr/06 · Editado por: Bilyson


    eu tirei de ouvido a um tempo,pq as tabs q eu procurei axei q tava meio estranho,intao pra ajudar qm ta qrendo tirar tbm...
    (afinaçao em Bemol)

    e---------------------12-16p12----------------------------
    B------------------14----------14--------------------------
    G-------------9-13----------------13-9--------------------
    D----------11--------------------------11-----------------
    A-------11--------------------------------11---------------
    E--9-12--------------------------------------12------------
    _

    e-----------------------16-19p16--------------------------
    B--------------------17----------17------------------------
    G--------------13-16----------------16-13------------------
    D-----------14----------------------------14---------------
    A--------14----------------------------------14------------
    E--12-16----------------------------------------16---------
    _

    e------------------------14-19p14-------------------------
    B---------------------16----------16-----------------------
    G--------------11--16----------------16--11----------------
    D-----------13------------------------------13-------------
    A--------14------------------------------------14----------
    E--11-14-----------------------------------------14--------
    _

    e---------------------12-16p12----------------------------
    B------------------14----------14--------------------------
    G-------------9-13----------------13-9--------------------
    D----------11--------------------------11-----------------
    A-------11--------------------------------11---------------
    E--9-12--------------------------------------12------------



    bom,eh isso ai....eu axo..se algum souber um jeito mais simples..ou se tiver algo errado..fale ai!!

    iS_LaSh
    Veterano
    # abr/06
    · votar


    Putz ... que arpegio fudido !!!! sempre achei que era foda .. e eh rapidao o do jogo !!! ta loco !!! os tapping eu tirei os do meio da musica !!! mais esse arpegio nem quero tentar ... dignos do jason becker !!! aehuaehuaheuhae

    Bilyson
    Veterano
    # abr/06
    · votar


    tenta ae fio..nao eh nm a metade da fodasticidade de q vc ta pensando....nada q uma boa treinada com metronomo nao resolva!

    iS_LaSh
    Veterano
    # abr/06
    · votar


    to no serviço ... a guitarra ta aqui do lado mais nao posso fuçar nela aki agora ... !!!!
    se meu patrão entrar aqui e me pegar treinando ele me manda embora ... dpois que acabar a gravação do programa aqui eu vou tentar ...

    mais uma coisa eu confesso ... !!! nao sei fazer arpegio nem fudendo ... tento tento e nao consigo pegar a manha de palhetar em sweep ...!!! foda ... nao nasci pra arpegio !!!

    MatheusMX
    Veterano
    # abr/06
    · votar


    no my song book tem completa

    Bilyson
    Veterano
    # abr/06
    · votar


    EduArdanuy
    a q eu pguei de ta tava mta torta ao meu ver!nao sei se eh a msma!

    gu
    Veterano
    # abr/06
    · votar


    a musica eh muse - bliss, e a introducao eh no teclado, a guitarra entra depois
    mas se for tirar na guitarra a parte do teclado eh dificil mesmo

      Enviar sua resposta para este assunto
              Tablatura   
      Responder tópico na versão original
       

      Tópicos relacionados a Introduçao de top gear(tab) pra vcs!