Malmsteen e os clássicos - você consegue?

    Autor Mensagem
    Max The Iceman
    Veterano
    # nov/05


    Tava assistindo videos ou mini-videos do Malmsteen e dá pra notar como ele abusa dos riffs de músicas clássicas, é uma característica dele

    alguém aqui consegue fazer esse tipo de coisa, fazer fritações ou solos com inspiração na música clássica?

    GuitarHouse
    Veterano
    # nov/05
    · votar


    pode tb ser impressao por causa das escalas menores q ele usa e abusa

    Max The Iceman
    Veterano
    # nov/05
    · votar


    GuitarHouse

    não, ele usa riffs de trechos de músicas clássicas conhecidas

    iMPeLLiTTeRi
    Veterano
    # nov/05
    · votar


    Sim... principalmente quando toca violão.

    Max The Iceman
    Veterano
    # nov/05
    · votar


    iMPeLLiTTeRi

    ele tem muita familiaridade com os clássicos
    acho difícil surgir um novo Malmsteen por causa disso

    BlacK Dog
    Veterano
    # nov/05 · Editado por: BlacK Dog
    · votar


    Tem uma matéria na cover guitarra sobre isso....influência da música clássica no rock e tal.

    O malmsteen devorou um monte sobre clássico. Tem um monte d "Licks" do paganini que ele copia. Só não sei aponta-los hehe =)

    BlacK Dog
    Veterano
    # nov/05
    · votar


    Putz, escrevi tudo errado heahhea, é a hora....xo editar...

    Max The Iceman
    Veterano
    # nov/05
    · votar


    BlacK Dog

    é coisa de europeu, principalmente nórdico
    eles ouvem os clássicos como a gente escuta axé, pagode (vindo da casa dos outros heheh)

    iMPeLLiTTeRi
    Veterano
    # nov/05
    · votar


    Uma coisa que acho interessante é que a maioria dos bons guitarristas ja fizeram aulas de musica clássica um dia.

    Max The Iceman
    Veterano
    # nov/05
    · votar


    iMPeLLiTTeRi

    no caso do Malmsteen, em certa hora tive a impressão de que o som era de um violino, em um desses videos do tópico do sena.

    BlacK Dog
    Veterano
    # nov/05
    · votar


    Max The Iceman

    Países desenvolvidos. :)

    iMPeLLiTTeRi

    Quantos vc conhece? Só conheço o Randy rhoads msmo. O Petrucci naum fez aulas, mas ele estudava as músicas, sozinho.

    Marisco
    Veterano
    # nov/05
    · votar


    BlacK Dog
    Quantos vc conhece? Só conheço o Randy rhoads msmo. O Petrucci naum fez aulas, mas ele estudava as músicas, sozinho.

    O Petrucci não fez aulas? Acho que você se esqueceu dos muitos anos que ele passou na Berklee!

    JoeCruzGuitar
    Veterano
    # nov/05 · Editado por: JoeCruzGuitar
    · votar


    hhehehe Petrucci e sua turma são moh ratos de conservatório !!! passaram realmente um bom tempo na Berklee, aliás, a banda se formou lá.

    Max, acho q o lance eh cultural mesmo. Devem existir mais trocentos malmsteen´s por ai, principalmente na Europa onde Clássico eh quase q nem Samba aqui ;)

    Falando nisso, quem aqui toca um sambinha no violão ??? Com direito a quebradeira nas harmona e linha de baixo (walking bass) no violão ???

    E pra não dizerem q isso é som de 3o.mundo, acho o Samba e o choro tão dificeis de tocar quanto uma peça classica, envolvem complexidade na harmonia, independecia vocal (harmonia com linha melodica junto ou linha baixo junto), e ritimica (q o classico tem pouco)

    heheheheh

    marcio_zav
    Veterano
    # nov/05
    · votar


    Tipica frase de pedal-point q o Malmsteen faz. Em sextinas.

    D#||--19-20-17-20-15-20----20----20----20-----------||
    A#||--------------------19----17----16----17~-------||
    F#||------------------------------------------------||
    C#||------------------------------------------------||
    G#||------------------------------------------------||
    D#||------------------------------------------------||


    angus junior 2
    Veterano
    # nov/05
    · votar


    marcio_zav
    black star \o/!!

    marcio_zav
    Veterano
    # nov/05
    · votar


    angus junior 2
    icarus dream suite op. 4 tb \o/!!

    marcio_zav
    Veterano
    # nov/05
    · votar


    angus junior 2
    No show Concerto Suite ele faz direto isso, mas ao inves de dar a vibrato no final ele tasca uma fritacao............hehe

    Max The Iceman
    Veterano
    # nov/05
    · votar


    o som dele é muito característico
    isso é raro no reino fritador
    acho que o kiko loureiro tá usando umas escalas próprias da música brasileira pra ter um estilo próprio tb

    Pedroppl1
    Veterano
    # nov/05 · Editado por: Pedroppl1
    · votar


    O q eu acho mais foda nele é isso dele sabe aplicar bem no estilo dele as influencias classicas. Malmsteen é foda, quem fala ao contrario é doido

    Tuarelli
    Veterano
    # nov/05
    · votar


    É justamente a escala menor melódica que dá essa característica. (Concordando com o GH)

    Mas, RIFFS de música clássica? Onde que música erudita tem riff?

    alguém aqui consegue fazer esse tipo de coisa, fazer fritações ou solos com inspiração na música clássica?

    Eu tento tirar umas coisas dele. Até que sai um pouco... tmb já tirei de ouvido trechos de música clássica.

    marcio_zav
    Veterano
    # nov/05
    · votar


    Ele tb usa bastante frases desse tipo:
    Essa eh de Icarus Dream Suite Op. 4

    D#||--8-12-11-12-8-12-11-12-7-12-11-12-7-12-11-12-|
    A#||----------------------------------------------|
    F#||----------------------------------------------|
    C#||----------------------------------------------|
    G#||----------------------------------------------|
    D#||----------------------------------------------|



    -----12-11-12----12-11-12---12-11-12---12-11-12-|
    --10----------10----------8----------8----------|
    ------------------------------------------------|
    ------------------------------------------------|
    ------------------------------------------------|
    ------------------------------------------------|



    ----11-9-11---11-9-11---12-11-12---12-11-12-||
    --7---------7---------8----------8----------||
    --------------------------------------------||
    --------------------------------------------||
    --------------------------------------------||
    --------------------------------------------||


    Max The Iceman
    Veterano
    # nov/05
    · votar


    Tuarelli

    já escutei até trechos da 2a. Sinfonia do Beethoven :]
    mas tem riffs de um monte, não sei o nome, conheço de ouvido

    spainEL
    Veterano
    # nov/05
    · votar


    Richie Blackmore foi um dos principais expoentes da música erudita dentro do rock... e a principal influência do malmsteen

    spainEL
    Veterano
    # nov/05
    · votar


    Ahhh pra galera que se amarra nisso, peguem aí Extreme - Play with me... puta solo foda, com frases clássicas e mostra que Extreme não é só more than words.

    gustavo_m
    Veterano
    # nov/05
    · votar


    dahora sao os arpeggios dele


    e-------------------------5-5-12-5-12-------------------
    B----------------------5-5-------------------------------
    G-------------------6-6-6---------------------------------
    D------------------7-7-----------------------------------
    A---------------7-7--------------------------------------
    E-0-0--0-3-3-7-7-7-----------------------------------------


    gustavo_m
    Veterano
    # nov/05
    · votar


    acho q eh assim.. tirei hoje arpeggios from hell

    marcio_zav
    Veterano
    # nov/05
    · votar


    gustavo_m

    D#||----------------------------------------------------|
    A#||----------------------------------------------8---8-|
    F#||----------------------------------------9---9---9---|
    C#||---------------------------------9----9---9---------|
    G#||-------------------7---7-10-7-10---10---------------|
    D#||--0--0-3-0-3-7-3-7---7------------------------------|



    --7---7-12-7-12-15-14-12-15-14-12-19-15------------------------------- |
    ----8-----------------------------------17----17---------------------- |
    -------------------------------------------16----16----16------------- |
    ----------------------------------------------------17----17-14-17-14- |
    ---------------------------------------------------------------------- |
    ---------------------------------------------------------------------- |



    --------------------------||
    --------------------------||
    --------------------------||
    -----14-------------------||
    --14----14----14----------||
    -----------15----15-12~---||


    BlacK Dog
    Veterano
    # nov/05
    · votar


    Marisco

    Então, mas ele aprendeu violão clássico? Bah, esquece. O maluco deve ter aprendido tanta coisa lá...

    Max The Iceman
    Veterano
    # nov/05
    · votar


    o Malmsteen apenas faz o que os daqui deveriam fazer: aproveitar a cultura musical do seu país

    Max The Iceman
    Veterano
    # nov/05
    · votar


    Malmsteen conseguiu, à moda dele, juntar Hendrix e os clássicos que ele, Malmsteen, gostava

    ninguém pode querer ser um seguidor de Malmsteen sem seguir o mesmo caminho :P

      Enviar sua resposta para este assunto
              Tablatura   
      Responder tópico na versão original
       

      Tópicos relacionados a Malmsteen e os clássicos - você consegue?