Sweep em Arpejo

    Autor Mensagem
    Philippe Valentim
    Veterano
    # set/05


    Ai galera, to precisando de um exercicio bem milagroso para ganhar mais velocidade , um abraço.

    marcio_zav
    Veterano
    # set/05 · Editado por: marcio_zav
    · votar


    Esse!

    The Blue Special Guitar
    Veterano
    # set/05 · Editado por: The Blue Special Guitar
    · votar


    www.exerciciosmilagrososparaganharvelocidadenosweep.com.br

    EduArdanuy II
    Veterano
    # set/05 · Editado por: EduArdanuy II
    · votar



    e---------8-12p8--------------------12-15p12-----------
    B-------10------10----------------11--------11---------
    G------9----------9-------------12------------12-------
    D----10------------10---------14----------------14-----
    A--12----------------12-----15--------------------15---
    E------------------------------------------------------





    e-----5-8p5-------------7-10p7------------------------------
    B----6-----6-----------8------8----------------------------
    G---5-------5---------7--------7---------------------------
    D--7---------7-------9----------9--------------------------
    A-8-----------8----10------------10--------------------------
    E------------------------------------------------------



    MyNameIsRevolution
    Veterano
    # set/05
    · votar


    eh um coelho....o debaixo eh um gato

    jNp
    Veterano
    # set/05
    · votar


    hIUAOhUAHEUhAEHuhAUEIAE

    EduArdanuy II
    Veterano
    # set/05
    · votar


    huaehuaeuhae

    EduSlash_o_Retorno
    Veterano
    # set/05
    · votar


    hUihaiuhIUhauihi

    Marisco
    Veterano
    # set/05
    · votar



    e-----15b(27)--------------2-------------------------2-
    B-----------------------20---24----------------1-------
    G--------------------13---------4-----------------24---
    D------------------7--------------3---------15---------
    A---------------24------------------15b(1)-------------
    E--1----------1----------------------------------------


    marcio_zav
    Veterano
    # set/05 · Editado por: marcio_zav
    · votar



    Dm C
    E||--17h13----------13-17h13-15h12----------12-15h12-|
    B||--------15----15----------------13----13----------|
    G||-----------14----------------------12-------------|
    D||--------------------------------------------------|
    A||--------------------------------------------------|
    E||--------------------------------------------------|

    Bb A
    --13h10----------10-13h10-12h9---------9-12h9-|
    --------11----11---------------10---10--------|
    -----------10---------------------9-----------|
    ----------------------------------------------|
    ----------------------------------------------|
    ----------------------------------------------|

    Bb C
    --13h10----------10-13h10-15h12----------12-15h12-|
    --------11----11----------------13----13----------|
    -----------10----------------------12-------------|
    --------------------------------------------------|
    --------------------------------------------------|
    --------------------------------------------------|

    Dm
    --17h13----------13-17h13-17h13----------------||
    --------15----15----------------15-------------||
    -----------14----------------------14----------||
    --------------------------------------15-------||
    -----------------------------------------17~---||
    -----------------------------------------------||


    BlacK Dog
    Veterano
    # set/05
    · votar


    Marisco

    heuaheuaehuahueauehae

    EduArdanuy II
    Veterano
    # set/05
    · votar


    Marisco
    hauehueahuaha

    MyNameIsRevolution
    Veterano
    # set/05
    · votar



    e------------------------------------------------------
    B------------------------------------------------------
    G------------------------------------------------------
    D------------------------------------------------------
    A------------------------------------------------------
    E------------------------------------------------------
    B--0b--------------------------------------------------


    Freedon
    Veterano
    # set/05
    · votar


    MyNameIsRevolution
    essa não foi muito ruim não... eu dei um pouco de risada... mas a do marisco foi melhor... desculpe

    Freedon
    Veterano
    # set/05
    · votar


    você ainda chega lá

    Gustavo Mandelli
    Veterano
    # set/05
    · votar


    Philippe Valentim
    Comece com arpejos de apenas tres cordas pra ganhar velocidade, depois passa para de 4 e 5 cordas.... o exercicio que o marcio-zav postou ali é muito bom

    Wolf Mcfly
    Veterano
    # set/05
    · votar


    faz aqueles exercícios de crucifixo com palhetada alternada e sweep... mas quando for fazer com sweep, no começo, que vai estar fazendo mais devagar, coloque mais força na palhetada.. isso vai te ajudar com a precisão..

    Kirk_Hammett
    Veterano
    # set/05
    · votar



    e------------------------------------------------------
    B------------------------------------------------------
    G------------------------------------------------------
    D------------------------------------------------------
    A-----9-------------------------------------------------
    E--8h----------------------------------------------------


    BlacK Dog
    Veterano
    # set/05 · Editado por: BlacK Dog
    · votar


    O lance é tentar tirar de ouvido esse exercicio :

    [url]http://rapidshare.de/files/5229627/Speed_Sweep_picking.mid.html[/ url]


    Se for muito dificil pra vc eu passo a tab.

    BlacK Dog
    Veterano
    # set/05
    · votar


    http://rapidshare.de/files/5229627/Speed_Sweep_picking.mid.html

    Hmm

    marcio_zav
    Veterano
    # set/05
    · votar


    BlacK Dog
    falou shred............hahaha

    BlacK Dog
    Veterano
    # set/05
    · votar


    marcio_zav

    Eu consigui tirar de ouvido na segunda tentativa cara.

    Só não gravo pq eu emprestei o microfone pra minha tia gravar a minha priminha cantando The number of the beast.

    Kirk_Hammett
    Veterano
    # set/05 · Editado por: Kirk_Hammett
    · votar


    BlacK Dog
    AFF COMO VC MENTE VEIO!!












    TU EMPRESTO PA TUA VÓ! :D

    BlacK Dog
    Veterano
    # set/05
    · votar


    Kirk_Hammett


    AFF COMO VC MENTE VEIO!!


    (Glup)

    Como é que é?

    TU EMPRESTO PA TUA VÓ! :D


    Ah sim, claro, claro, isso mesmo zequinha, isso mesmo. :)

    Kirk_Hammett
    Veterano
    # set/05
    · votar


    BlacK Dog
    xD

    gege_correa
    Veterano
    # set/05
    · votar


    www.exerciciosmilagrososparaganharvelocidadenosweep.com.br
    Pô cara, não abriu! hauahauahauaha

    BRINCADEIRA!!! ;-)

    Philippe Valentim
    Veterano
    # set/05
    · votar


    Na verdade eu consigo mudar bastante rapido, mas se eu fico fazendo muito arpejo , acaba saindo falhado,

    Philippe Valentim
    Veterano
    # set/05
    · votar


    Ai esse é o jeito que eu faço o arpejo

    da uma escutada ai.

    http://geocities.yahoo.com.br/philippe_valentim/arpejo.mp3

    Esse arpejo é do GLORIA do OFICINA G3

      Enviar sua resposta para este assunto
              Tablatura   
      Responder tópico na versão original
       

      Tópicos relacionados a Sweep em Arpejo