alguem pode tirar a sequencia dessa musica pra mim?

    Autor Mensagem
    slowhands
    Veterano
    # mar/06


    alguem pode tirar a sequencia dessa musica pra mim?

    Cheryl Lynn - Got To Be Real

    grato

    marcioazzarini
    Veterano
    # mar/06 · Editado por: marcioazzarini
    · votar


    slowhands

    Vou te ajudar, +/- de cabeça, pq to no trampo sem o baixo... heheheh

    Intro:

    G------------------------------------------------------
    D----------3----------3-----5-5------------------------
    A------3-5--------3-5----------------------------------
    E----5----------5--------------------------------------


    O groove principal:
              P P
    
    G----------------------------|-----------------------
    D------------2-4-------------|-----------2-4---------
    A--5---5-4----------------2-4|-5---5-4---------------
    E----------------2-2-2-------|----------------2-2-2--


    No final, achoq sobe de tom, mas não lembro, pq to sem a música aqui tbm... hehehehe

    FBassist
    Veterano
    # mar/06
    · votar


    Riff da Introdução
    G||---------------10---------------10----------
    D||-------10--12-----------10--12-------0-0--
    A||---12---------------12----------------------
    E||----------------------------------------------


    What you find, ah
    What you feel now
    What you know-a
    To be real
    G||------------------------------------------
    D||-----------3/3----------------------------
    A||---6--6-5---------------------------------
    E||----------------3-3-3--0------------------


    As vezes tem uma subidinha para o D# (C-D)
    G||------------------------------------------
    D||----------------3/3-----------------------
    A||---3-5--6--6-5----------------------------
    E||---------------------3-3-3--0-------------


    Ooh your love's for real now
    You know that your love is my love
    My love is your love
    Our love is here to stay
    G||-------------------------------------------------------
    D||-------------------------------------------------------
    A||-3-3-1-3--1-3--1-3-3--1-3--3-3-1-3--1-3--1-3-3-
    E||-------------------------------------------------------

    G||------------------------------------------------------
    D||------------------------------------------------------
    A||-5--5-5-5--6--6-6-6--3--3-3-3--5-5-5-5-5-------
    E||------------------------------------------------------


    Depois disso sobe o tom para F.

    rtreye
    Veterano
    # mar/06
    · votar


    o groove principal tem a mesma sequencia de encontrar alguem do jota quest.
    nao consigo ouvir uma das duas sem pensar na outra

    Rafael do Baixo
    Veterano
    # mar/06
    · votar


    Groove principal

           P
    
    G-----------------------------------------
    D---------3H5-----------------------------
    A-6--6-5--------------------3-5-6---------
    E---------------3-3--1~-------------------

    Lá pro meio da música ela sobe eu acho que um tom e na hora dos slaps ele usa como base esse groove cheio de dead notes mas eu não sei o que ele faz quando ele começa a subir pros agudos.

      Enviar sua resposta para este assunto
              Tablatura   
      Responder tópico na versão original
       

      Tópicos relacionados a alguem pode tirar a sequencia dessa musica pra mim?