Gravei Dream Theater e Guns n Roses...ouçam aeeee!!!

Autor Mensagem
metropolisamp
Veterano
# mar/05


Ae galera baixem meus mp3...

eu fiz um email pra colocar as musicas...

eh no yahoo http://login.yahoo.com/config/mail?.intl=br
o usuario eh: pakmanmp3
e a senha eh: mp3mp3

é soh baixar

foi o unico jeito de hospedar minhas musicas que consegui...hehe

por favor nao alterem a senha...

escutem e deem opinião...

obrigado...

MatheusMX
Veterano
# mar/05
· votar


ficou massa ...

adnz
Veterano
# mar/05
· votar


se eu n gostar eu mudo a senha haeuiohae
brincadera, vo da uma olhada

adnz
Veterano
# mar/05 · Editado por: adnz
· votar


soh baxei beyond this life, faltando meio minuto até faltar 10 segundos vc perde o timing eu acho, n sei direito, mas da algo errado ali

metropolisamp
Veterano
# mar/05
· votar


adnz

eh que a batera fica em 4/4 e eu fico em 17/4...confunde mesmo...

metropolisamp
Veterano
# mar/05
· votar


adnz

o tempo eh muito foda...imagina com o solo de techado ainda por cima...vishhh...soh DT pra inventa essas coisa

hora começo a frase no bumbo, hora na caixa, hora no chimbal...ééé

Alan_Domingues
Veterano
# mar/05
· votar


Home tá errado mano. Se tirou errado.

metropolisamp
Veterano
# mar/05
· votar


Alan_Domingues

as partes que eu toquei está certo...eu pulei um pedaço pq tem muito teclado...
e nao tenho muito tempo pra ficar gravando, pois trabalho o dia todo e estudo a noite...

obrigado por ter ouvido...

Alan_Domingues
Veterano
# mar/05
· votar


metropolisamp

Esta errado sim, a parte que é cantada no início. E não precisa dar desculpa que não tem tempo po. Não é pecado estar errado não bicho.

rock222
Veterano
# mar/05
· votar


ficou legal cara ...

metropolisamp
Veterano
# mar/05
· votar


Alan_Domingues

eu nao gravei o inicio da musica...gravei esse pedaço soh por causa do wah-wah...se eh q vc percebeu...

meu lance foi tentar a maxima qualidade de gravação...e usei um pedaço da musica do Dt que eu gostava, Home...

isso nao é errar...ok?

a qualidade está boa?te agrada?tem recomendações?programas bons?

rock222

Valeu kra...

metropolisamp
Veterano
# mar/05
· votar


Alan_Domingues

eu ia gravar soh o wah-wah, mas dai ouvi esse outro pedaço e gravei...buscando soh qualidade na gravação apenas...

Alan_Domingues
Veterano
# mar/05
· votar


metropolisamp

AFF MANO. NÃO TO FALANDO QUE VOCE PULOU A INTRO NÃO PO. ESTOU FALANDO LOGO DEPOIS DO RIFF DO WHA WHA. QUE VOCE FICA NO RE E TEM OUTROS LICK, VOCE NÃO FEZ E AINDA FEZ ALGO TOTALMENTE ERRADO.

CAPTOU AGORA ?????????????

metropolisamp
Veterano
# mar/05
· votar


Alan_Domingues

ah...blz MANO
espero sua gravação...

metropolisamp
Veterano
# mar/05
· votar


Galera...espero mais comentarios construtivos ae...obrigado...
agradeço a galera que esta entrando em contato por email tb...valeu

Alan_Domingues
Veterano
# mar/05
· votar


metropolisamp

Minha gravação de que ? Estou sendo gente boa te ajudando a fazer o conserto dos seus erros. Se voce que se enganar tudo bem. Siga sua opinião. Eu tenho uma banda cover de Dream Theather. Posso lhe garantir que minha opinião vale mais.

Alan_Domingues
Veterano
# mar/05
· votar


  D5                               A5BbD5G5Ab5

PM------------------------------------------
E e E S E S E E. S E e E S E S S S S S E
|--------------------|-----------------------|
|--------------------|-----------------------|
|--------------------|-----------------------|
|-0-0---0-0-0-0----0-|-0-0---0-0-0-7s8p0-5-6-|
|-0-0---0-0-0-0----0-|-0-0---0-0-0-7s8p0-5-6-|
|-0-0---0-0-0-0----0-|-0-0---0-0-0-7s8p0-5-6-|


D5 N.C.
--------------------------------|
|-3-|
E e E S E S E E. S E e E S E S S S S S S S S
|--------------------|----------------------------||
|--------------------|----------------------------||
|--------------------|----------------------------||
|-0-0---0-0-0-0----0-|-0-0---0-0-0-------1p0------||
|-0-0---0-0-0-0----0-|-0-0---0-0-0----------------||
|-0-0---0-0-0-0----0-|-0-0---0-0-0-0h1h3-----3p0--||


1st. Verse
D5 A5BbD5G5Ab5
Gtrs III, IV
PM------------------------------------------
E e E S E S E E. S E e E S E S S S S S E
||---------------------|-----------------------|
||o--------------------|-----------------------|
||---------------------|-----------------------|
||--0-0---0-0-0-0----0-|-0-0---0-0-0-7s8p0-5-6-|
||o-0-0---0-0-0-0----0-|-0-0---0-0-0-7s8p0-5-6-|
||--0-0---0-0-0-0----0-|-0-0---0-0-0-7s8p0-5-6-|


D5 N.C.
--------------------------------|
|-3-|
E e E S E S E E. S E e E S E S S S S S S S S
|--------------------|----------------------------||
|--------------------|---------------------------o||
|--------------------|----------------------------||
|-0-0---0-0-0-0----0-|-0-0---0-0-0-------1p0------||
|-0-0---0-0-0-0----0-|-0-0---0-0-0---------------o||
|-0-0---0-0-0-0----0-|-0-0---0-0-0-0h1h3-----3p0--||


D5 N.C.
PM---------------------|
|-3-|
E e E S E S E E. S E e Q E S S S S S S S
||---------------------|------------------------|
||o--------------------|------------------------|
||---------------------|------------------------|
||--0-0---0-0-0-0----0-|-0-0------------3p0-----|
||o-0-0---0-0-0-0----0-|-0-0--------------------|
||--0-0---0-0-0-0----0-|-0-0------0h3h5-----6p5-|


D5 N.C.
PM---------------------|
|-3-|
E e E S E S E E. S E e Q E S S S S S S S
|--------------------|-------------------------||
|--------------------|------------------------o||
|--------------------|-------------------------||
|-0-0---0-0-0-0----0-|-0-0------------3p0------||
|-0-0---0-0-0-0----0-|-0-0--------------------o||
|-0-0---0-0-0-0----0-|-0-0------0h3h5-----1p0--||


Alan_Domingues
Veterano
# mar/05
· votar


É este treicho. Eu toco esta música com guitarra de 7 cordas, apenas modifico o modo de tocar. A transcrição é esta. Guitarra drooped D (DADGBe).

Não falei nada aqui para te sacanear e sim para lhe corrigir e fazer voce melhorar.

Se voce não gostou amigo, paciência.

metropolisamp
Veterano
# mar/05
· votar


Alan_Domingues

agora intendi...obrigado...desculpa...pensei que estava soh criticando...

metropolisamp
Veterano
# mar/05
· votar


Alan_Domingues

entre em contato comigo por email...metropolisamp@yahoo.com.br
eu tb tinha uma uns 3 anos atraz uma Banda quase cover DT...queria trocar ideias com vc...ok?

Lucas_r2
Veterano
# mar/05
· votar


metropolisamp
eh só base mas tah bacana, fora o erro do tempo em beyond this life, e q vc tirou errado home. fora isso tah legal

Alan_Domingues
Veterano
# mar/05
· votar


metropolisamp

eu uso mais MSN do que mail.

alanguitarra@hotmail.com manda msg porque eu estou com a lista cheia tem muito tempo.

metropolisamp
Veterano
# mar/05
· votar


Lucas_r2

eu me preocupei em gravar com qualidade nesse caso, tirei a musica rapidão e gravei...

Alan_Domingues
nao manjo como funciona msn mas vou ver pra fazer um pra mim...e oq vc usa de equipamento?amp? guita?pedal?

Alan_Domingues
Veterano
# mar/05
· votar


metropolisamp

http://alan.guitarhouse.com.br

metropolisamp
Veterano
# mar/05
· votar


Alan_Domingues
ooo kra vou baixar suas musica...que pelo jeito devem estar muito locas..

king_arthur
Veterano
# mar/05
· votar


Alan_Domingues
are you vern?

metropolisamp
Veterano
# mar/05
· votar


Alan_Domingues

pelo que eu vi vc é "O KRA" na guitarra heim...muito legal...bom ter uma banda cover DT neh...foi vc que postou o solo de As I Am a um tempo atraz? e o som do seu V-amp, eh legal?qual simulador vc usa nele?

GuitarHouse
Veterano
# mar/05
· votar


king_arthur
Sim, é o Vern

metropolisamp
é vamp pro

foi vc que postou o solo de As I Am
foi

Alan_Domingues
Veterano
# mar/05
· votar


GH já respondeu por mim. Vern = Alan Domingues. Não posto mais como Vern porque simplismente meu login morreu. Não recupera senha. Sei lá o que aconteceu.

metropolisamp
Veterano
# mar/05
· votar


alguem + escutou?

Enviar sua resposta para este assunto
        Tablatura   
Responder tópico na versão original
 

Tópicos relacionados a Gravei Dream Theater e Guns n Roses...ouçam aeeee!!!