Que demais veio...

Autor Mensagem
Skider
Veterano
# jan/06


000000000000000000000000000000
000000000000 777 00000000000000
00000000000 77777 0000000000000
00000000000 77777 0000000000000
000000000000 777 00000000000000
000000000000 777 00000000000000
000000000000 777 00000000000000
000000000000 777 00000000000000
000000000000 777 00000000000000
000000000000 777 00000000000000
000000000000 777 00000000000000
000000000000 777 00000000000000
000000000000 777 00000000000000
000000000000 777 00000000000000
000000000000 777 00000000000000
000000000000 777 00000000000000
00000 7 0000 77777777777 0000000
0000 777 00 77777777777777 00000
000 777777777777777777777 00000
000 777777777777777777777 00000
0000 77777777777777777777 00000
00000 777777777777777777 000000
000000 7777777777777777 0000000
00000 777777777777777777 000000
0000 77777777777777777777 00000
000 7777777777777777777777 0000
00 777777777777777777777777 000
00 777777777777777777777777 000
000 7777777777777777777777 0000
00000 777777777777777777 000000
00000000 777777777777 000000000
000000000000000000000000000000

Skider
Veterano
# jan/06
· votar


lol.. eu sou o kra.. :D

Ghost Of The Sun
Veterano
# jan/06
· votar


Skider

Porra tu é foda man.. posso andar ctg na hora do recreio?

Skider
Veterano
# jan/06
· votar


Ghost Of The Sun
só se vc pagar meu lanche... :D

Jason
Veterano
# jan/06
· votar



e------1h4-21T-----------------------------------------------
B--15^----------------------------------------------------
G---------------------3---------------------------------
D---------------------------1T---------------------------
A----------------8-8-------------------------------------
E------------------------------------------------------


Skider
Veterano
# jan/06
· votar


Jason
nao desvie o assunto do topico..
\o/

Ghost Of The Sun
Veterano
# jan/06
· votar


Skider
só se vc pagar meu lanche... :D

Eu posso dividir o lanchinho ctg.. tem toddynho e maçã qué?

Skider
Veterano
# jan/06
· votar


Ghost Of The Sun
ok.. eu pago a mini-pizza
\o/

RobertSmith
Veterano
# jan/06
· votar


dãããããã

Ghost Of The Sun
Veterano
# jan/06
· votar


Skider
ok.. eu pago a mini-pizza
\o/


Só se for de mussarela.. \o/

Skider
Veterano
# jan/06
· votar


Ghost Of The Sun
/o/
demoro... :P
cumom. vamu pegar as gatinhas

\o/

Ghost Of The Sun
Veterano
# jan/06
· votar


Skider
/o/
demoro... :P
cumom. vamu pegar as gatinhas


\o\
Vo da uma beijoca na Mariazinha.. :)

Jaum_Paulo
Veterano
# jan/06
· votar


Ôxi!

Skider
Veterano
# jan/06
· votar


Ghost Of The Sun
lol
eu pego a joaninha..
:D

Ghost Of The Sun
Veterano
# jan/06
· votar


Skider
lol
eu pego a joaninha..
:D


\o/
*saudades da infância..*
haushaushuas

Skider
Veterano
# jan/06
· votar


hauheuaehea.
pode cre veio..
é triste.. :P

Toalhinha
Veterano
# jan/06
· votar


Skider
faz pra mim uma bateria?

pedrobrito
Veterano
# jan/06
· votar


Nunca postei aki...

Skider
Veterano
# jan/06
· votar


Toalhinha
uehueahae
sou guitarrista veio.,
ano intendo de outros instrumentos. :D
pedrobrito
agora postou... :P

RobertSmith
Veterano
# jan/06
· votar


esse é o unico forum que ainda tem algum movimento

Léo
Veterano
# jan/06 · Editado por: Léo
· votar


´´´´´´´´´´´´´øo´´´´´´´´´´´´´´´´´´´´´´´´´´´´´´´´´´´´´´´´´´´´´´´´´´´´´¢¶
´´´´´´´´´´´´´´¶¶¶¶¶o´´´ø¶¶¶´´´´´´´´´´´´´´´´´´´´´´´´´´´´´´´´´´´´´´´´´´´
´´´´´´´´´´´´´´´¶¶¶¶¶¶¶´¶¶$¶´´´´´´´´´´´´´´´´´´´´´´´´´´´´´´´´´´´´´´´´´´´
´´´´´´´´´´´´´´´´¶¶¶¶7$¶¶´´´´´´´´´´´´´´´´´´´´´´´´´´´´´´´´´´´´´´´´´´´´´´
´´´´´´´´´´´´´´´´´¶$øø¶¶¶ø´¶¶¶¶o´´´´´´´´´´´´´´´´´´´´´´´´´´´´´´´´´´´´´´´
´´´´´´´´´´´´´´´´´´¶$o7¶¶ø¶o¶¶¶´´´´´´´´´´´´´´´´´´´´´´´´´´´´´´´´´´´´´´´´
´´´´´´´´´´´´´´´´´´7¶1´$¶$¶¶o´´´¶¶¶´´´´´´´´´´´´´´´´´´´´´´´´´´´´´´´´´´´´
´´´´´´´´´´´´´´´´´´´¶¶7´o¢¶¶¶¶´¶¶ø¶´´´´´´´´´´´´´´´´´´´´´´´´´´´´´´´´´´´´
´´´´´´´´´´´´´´´´´´´´¶¶7´´o¶ø¶ø¶´´´17´´´´´´´´´´´´´´´´´´´´´´´´´´´´´´´´´´
´´´´´´´´´´´´´´´´´´´´´¶¶7o7o¶¶$¶$´¶¶¶¶1´´´´´´´´´´´´´´´´´´´´´´´´´´´´´´´´
1´´´´´´´´´´´´´´´´´´´´´¶1oo´1¢$¶$ø¢771´´´´´´´´´´´´´´´´´´´´´´´´´´´´´´´´´
1´´´´´´´´´´´´´´´´´´´´´¢¶$¶7´´o¶¶¶øo´´¶¶¶¶´´´´´´´´´´´´´´´´´´´´´´´´´´´´´
´´´´´´´´´´´´´´´´´´´´´´´¶¶¶¶¶7´¢øøo¶$´¶¶¶¶´´´´´´´´´´´´´´´´´´´´´´´´´´´´´
´´´´´´´´´´´´´´´´´´´´´´´´¶1´´ø´7´$¶¶¶øo´´´1$´´´´´´´´´´´´´´´´´´´´´´´´´´´
´´´´´´´´´´´´´´´´´´´´´´´´´¶¶ø¶øo¶¢øo¶oø¶´´¶¶¶´´´´´´´´´´´´´´´´´´´´´´´´´´
´´´´´´´´´´´´´´´´´´´´´´´´´7¶¶¢¶ø$7¶´øo¶¶ø$717´´´´´´´´´´´´´´´´´´´´´´´´´´
´´´´´´´´´´´´´´´´´´´´´´´´´´o¶o¶¢¢o$ø7øø¶¶ø¶´´´´´´´´´´´´´´´´´´´´´´´´´´´´
´´´´´´´´´´´´´´´´´´´´´´´´´´´¶¶¢ø¢øø$´$7øø¶¶o´´´´´´´´´´´´´´´´´´´´´´´´´´´
´´´´´´´´´´´´´´´´´´´´´´´´´´´´¶o¢¢¶o¶o¢¢¶ø1´´´´´´´´´´´´´´´´´´´´´´´´´´´´´
´´´´´´´´´´´´´´´´´´´´´´´´´´´´¶ø¢¢¶7¶oo¶$´´´´´´´´´´´´´´´´´´´´´´´´´´´´´´´
´´´´´´´´´´´´´´´´´´´´´´´´´´´´$$7$o7¢o¶$´´´´´´´´´´´´´´´´´´´´´´´´´´´´´´´´
´´´´´´´´´´´´´´´´´´´´´´´´´´´´¶¶1¶¶$o¶ø¶´´´´´´´´´´´´´´´´´´´´´´´´´´´´´´´´
´´´´´´´´´´´´´´´´´´´´´´´´´´´´¶¶ø¶¶¶¶¶¶¶´´´´´´´´´´´´´´´´´´´´´´´´´´´´´´´´
´´´´´´´´´´´´´´´´´´´´´´´´´´´´7¶1ø7ooo¢¶´´´´´´´´´´´´´´´´´´´´´´´´´´´´´´´´
´´´´´´´´´´´´´´´´´´´´´´´´´´´´o¶7$7¢¢oø¶´´´´´´´´´´´´´´´´´´´´´´´´´´´´´´´´
´´´´´´´´´´´´´´´´´´´´´´´´´´´´¢¶7$oøø¢ø¶´´´´´´´´´´´´´´´´´´´´´´´´´´´´´´´´
´´´´´´´´´´´´´´´´´´´´´´´´´´´´ø¶o¶oøøøø¶´´´´´´´´´´´´´´´´´´´´´´´´´´´´´´´´
´´´´´´´´´´´´´´´´´´´´´´´´´´´´¢17ø1o77o$´´´´´´´´´´´´´´´´´´´´´´´´´´´´´´´´
´´´´´´´´´´´´´´´´´´´´´´´´´´´´øø7øoø¢¢$¶´´´´´´´´´´´´´´´´´´´´´´´´´´´´´´´´
´´´´´´´´´´´´´´´´´´´´´´´´´´´´ø¶7$7øooø¶´´´´´´´´´´´´´´´´´´´´´´´´´´´´´´´´
´´´´´´´´´´´´´´´´´´´´´´´´´´´´ø$7ø7øooø¶´´´´´´´´´´´´´´´´´´´´´´´´´´´´´´´´
´´´´´´´´´´´´´´´´´´´´´´´´´´´´$¶o$o$¢¢ø¶´´´´´´´´´´´´´´´´´´´´´´´´´´´´´´´´
´´´´´´´´´´´´´´´´´´´´´´´´´´´´øo171o77oø´´´´´´´´´´´´´´´´´´´´´´´´´´´´´´´´
´´´´´´´´´´´´´´´´´´´´´´´´´´´´$øoøo$¢¢$¶´´´´´´´´´´´´´´´´´´´´´´´´´´´´´´´´
´´´´´´´´´´´´´´´´´´´´´´´´´´´´¶$oø7øooø¶´´´´´´´´´´´´´´´´´´´´´´´´´´´´´´´´
´´´´´´´´´´´´´´´´´´´´´´´´´´´´¶$oø7øo7ø¶´´´´´´´´´´´´´´´´´´´´´´´´´´´´´´´´
´´´´´´´´´´´´´´´´´´´´´´´´´´´´¢7ø$o$ooø$´´´´´´´´´´´´´´´´´´´´´´´´´´´´´´´´
´´´´´´´´´´´´´´´´´´´´´´´´´´´´ø´´71o77o¢1´´´´´´´´´´´´´´´´´´´´´´´´´´´´´´´
´´´´´´´´´´´´´´´´´´´´´´´´´´´´¶$ø$o$ooø$1´´´´´´´´´´´´´´´´´´´´´´´´´´´´´´´
´´´´´´´´´´´´´´´´´´´´´´´´´´´´¶¢oø7øo7øø1´´´´´´´´´´´´´´´´´´´´´´´´´´´´´´´
´´´´´´´´´´´´´´´´´´´´´´´´´´´´¶ø¢$7$ooøøo´´´´´´´´´´´´´´´´´´´´´´´´´´´´´´´
´´´´´´´´´´´´´´´´´´´´´´´´´´´´¢1´11o77ooo´´´´´´´´´´´´´´´´´´´´´´´´´´´´´´´
´´´´´´´´´´´´´´´´´´´´´´´´´´´´¶ø¢$o$ooøø¢´´´´´´´´´´´´´´´´´´´´´´´´´´´´´´´
´´´´´´´´´´´´´´´´´´´´´´´´´´´´¶¢oø7øoo¢øo´´´´´´´´´´´´´´´´´´´´´´´´´´´´´´´
´´´´´´´´´´´´´´´´´´´´´´´´´´´´$$øøoøooøøo´´´´´´´´´´´´´´´´´´´´´´´´´´´´´´´
´´´´´´´´´´´´´´´´´´´´´´´´´´´´7´´1´o17ooo´´´´´´´´´´´´´´´´´´´´´´´´´´´´´´´
´´´´´´´´´´´´´´´´´´´´´´´´´´´´¶øoøo$o¢øøo´´´´´´´´´´´´´´´´´´´´´´´´´´´´´´´
´´´´´´´´´´´´´´´´´´´´´´´´´´´´$¢7ø7øoo¢øo´´´´´´´´´´´´´´´´´´´´´´´´´´´´´´´
´´´´´´´´´´´´´´´´´´´´´´´´´´´´¶øoøoøoøøøo´´´´´´´´´´´´´´´´´´´´´´´´´´´´´´´
´´´´´´´´´´´´´´´´´´´´´´´´´´´´¢1´11o77ooo´´´´´´´´´´´´´´´´´´´´´´´´´´´´´´´
´´´´´´´´´´´´´´´´´´´´´´´´´´´´¶øoøoøoø¢$ø´´´´´´´´´´´´´´´´´´´´´´´´´´´´´´´
´´´´´´´´´´´´´´´´´´´´´´´´´´´1¶ø7ø7ø7ooøø´´´´´´´´´´´´´´´´´´´´´´´´´´´´´´´
´´´´´´´´´´´´´´´´´´´´´´´´´´´177oøoøoø¢$$´´´´´´´´´´´´´´´´´´´´´´´´´´´´´´´
´´´´´´´´´´´´´´´´´´´´´´´´´´´1ø7´717777oø´´´´´´´´´´´´´´´´´´´´´´´´´´´´´´´
´´´´´´´´´´´´´´´´´´´´´´´´´´´1¶øo$oøo¢¢$ø´´´´´´´´´´´´´´´´´´´´´´´´´´´´´´´
´´´´´´´´´´´´´´´´´´´´´´´´´´´1$¢oøoøo¢¢¶$´´´´´´´´´´´´´´´´´´´´´´´´´´´´´´´
´´´´´´´´´´´´´´´´´´´´´´´´´´´7o1´717177o¢´´´´´´´´´´´´´´´´´´´´´´´´´´´´´´´
´´´´´´´´´´´´´´´´´´´´´´´´´´´o$øoøoøoø¢$¶´´´´´´´´´´´´´´´´´´´´´´´´´´´´´´´
´´´´´´´´´´´´´´´´´´´´´´´´´´´o¢øoøo¢o¢o$$´´´´´´´´´´´´´´´´´´´´´´´´´´´´´´´
´´´´´´´´´´´´´´´´´´´´´´´´´´´¢´´11777o7oø´´´´´´´´´´´´´´´´´´´´´´´´´´´´´´´
´´´´´´´´´´´´´´´´´´´´´´´´´´´o$øo¢¢¢oøo$¶´´´´´´´´´´´´´´´´´´´´´´´´´´´´´´´
´´´´´´´´´´´´´´´´´´´´´´´´´´´o¢ooo¢¢7ooø¶´´´´´´´´´´´´´´´´´´´´´´´´´´´´´´´
´´´´´´´´´´´´´´´´´´´´´´´´´´´oo111777o7oø´´´´´´´´´´´´´´´´´´´´´´´´´´´´´´´
´´´´´´´´´´´´´´´´´´´´´´´´´´´o¢oo¢¢¢o¢oø¶´´´´´´´´´´´´´´´´´´´´´´´´´´´´´´´
´´´´´´´´´´´´´´´´´´´´´´´´´´´7¢ø¢¢o¢7oo¢¶´´´´´´´´´´´´´´´´´´´´´´´´´´´´´´´
´´´´´´´´´´´´´´´´´´´´´´´´´´´oo111777o7oø´´´´´´´´´´´´´´´´´´´´´´´´´´´´´´´
´´´´´´´´´´´´´´´´´´´´´´´´´´´¢¶ø¢o¢øo¢oø¶´´´´´´´´´´´´´´´´´´´´´´´´´´´´´´´
´´´´´´´´´´´´´´´´´´´´´´´´´´´¢´oø¢¢ø7øo´ø´´´´´´´´´´´´´´´´´´´´´´´´´´´´´´´
´´´´´´´´´´´´´´´´´´´´´´´´´´´ø¢11´77177oø´´´´´´´´´´´´´´´´´´´´´´´´´´´´´´´
´´´´´´´´´´´´´´´´´´´´´´´´´´´o¶¢ø¢øøoø¢ø¶´´´´´´´´´´´´´´´´´´´´´´´´´´´´´´´
´´´´´´´´´´´´´´´´´´´´´´´´´´´oø´71777o7oø´´´´´´´´´´´´´´´´´´´´´´´´´´´´´´´
´´´´´´´´o¶ø´´´´´´´´´´´´´´´´o¶7øo¢¢7¢oø¶´´´´´´´´´´´´´´´´´´´´´´´´´´´´´´´
´´´´´´´¶¶¶´´´´´´´´´´´´´´´´´7¶7$o¢¢7¢oø¶´´´´´´´´´´´´´´´´´´´´´´´´´´´´´´´
´´´´´¶¶¶¶¶´´´´´´´´´´´´´´´´´oø´71771o7oø´´´´´´´´´´´´´´´´´´´´´´´´´´´´´´´
´´´´ø¶¶$¶¶´´´´´´´´´´´´´´´´´oo7$o$ø7ø¢ø¶´´´´´´´´´´´´´´´´´´´´´´´´´´´´´´´
´´´´¶¶øø¶¶´´´´´´´´´´´´´´´´´oø´o1771o17ø´´´´´´´´´´´´´´´´´´´´´´´´´´´´´´´
´´´ø¶$$$¶¶1´´´´´´´´´´´´´´´´oø1øo$ø7$¢$¶´´´´´´´´´´´´´´´´´´´´´´´´´´´´´´´
´´´¶¶øøø$¶¶´´´´´´´´´´´´´´´´o$´7´771o17ø´´´´´´´´´´´´´´´´´´´´´´´´´´´´´´´
´´´¶¶$$ø$¶¶´´´1´´´´´´´´´´´´oø7¶¢$øo¶¢$¶´´´´´´´´´´´´´´´´´´´´´´´´´´´´´´´
´´´¶¶øøøø¶¶7´´1´´´´´´´´´´´´o7´o´o71o17¢´´´´´´´´´´´´´´´´´´´´´´´´´´´´´´´
´´´¶¶øøøø$¶¶´´11´´´´´´´´´´´o¶7¶o$¢o$¢¶¶´´´´´´´´´´´´´´´´´´7¶¶¶1´´´´´´´´
´´´¶¶øøøøø¶¶¶´´´´´´´´´´´´´´o¶´o´o71o1oø´´´´´´´´´´´´´´´´´´¶¶ø¶¶ø´´´´´´´
´´´7¶øø¢¢¢ø¶¶ø7´´´´´´´´´´´´o71¶7$øo$¢¶¶1´´´´´´´´´´´´´´´´´¶$øøø¶´´´´´´´
´´´´¶¶øøøøøø¶¶¶¶´´´´´´´´´´´o¶´$1oo7¢7oø´´´´´´´´´´´´´´´´´´¶¢¶ø¢¶o´´´´´´
´´´´ø¶ø¢¢øøøø¶¶¶¶o´´´´´´´7ø7¶´ø´¢¢7¢7øø1´´´´´´´´´´´´´´´´´¶o¶¶ø¶o´´´´´´
´´´´´¶¶¢¢øøøø$¶¶¶¶¶¶¶¶¶¶¶¶o´ø7¶7¢ø7$o¶$7´´´´´´´´´´´´´´´´ø¶o¶$¶$ø´´´´´´
´´´´´o¶øo¢ooo¢øø¶¶¶¶¶¶¶$¶¶1´ø´ø´¢¢1ø1øo7´´´´´´´´´´´´´´´´¶¶$¶ø¶$ø´´´´´´
´´´´´´¶¶øøøøøøøøøøøøø¢¢ø$¶11¶´$1øø1$7ø¢7´´´´´´´´´´´´´´´¶¶¶ø$$¶¶´´´´´´´
´´´´´´´¶$$øø¢øøøø¢ø¢¢¢o¢¢¶´1¶1¶1$ø7¶7¶ø7´´´´´´´´´´´´´1¶¶ø¶øø¶¶ø´´´´´´´
´´´´´´´ø¶¢oooooooo¢øøøø$¶¶11ø1ø´øo7ø7ø77¶´´´´´´´´´´´¶¶¶ø¢¶øø¶¶´´´´´´´´
´´´´´´´´¶¶øø¢øøøø¢ø¢ø¢oøø¶11o7¶1¶øoø7o1´¶¶¶øo7´´7¶¶¶¶¶ø¢o¶$¶¶¶´´´´´´´´
´´´´´´´´´¶øooo¢¢ooooøø$¶¶¶1´1´1´´´´1´7´´¶¶¶¶¶¶¶¶¶¶¶¶¶o¢ø¢¶¶¶¶7´´´´´´´´
´´´´´´´´´¶¶øøøøøø¢øo¢ooøø¶¶o¶ø¶ø¶¶¶¶$¶$¶¶¶ø¶¶øoøøøøo¢¢øøø¶¶¶¶´´´´´´´´´
´´´´´´´´´´¶oooo777oo¢o¢oo1¢´$´ø´oo´¢´¢´7´¶7¶$¢¶øø¢¢øøøø¢¶¶¶¶´´´´´´´´´´
´´´´´´´´´´¶¶øø¢¢oooooo¢¢ø7ø´¶1¶1ø¢1ø1ø7ø1¶o¶ø´¶ø¢ø¢ø¢¢ø$¶¶¶1´´´´´´´´´´
´´´´´´´´´´ø¶¢ooooooo¢¢ø1o7ø´¶1¶1ø¢1ø1ø1ø1¶´¶¶´¶ø¢ø¢øøø¢¶¶¶ø´´´´´´´´´´´
´´´´´´´´´´´¶oø¢o77o¢øøøøø7ø´¶´¶1øo1ø1ø1¢1¶¢$¶´øø¢¢ø¢øøo¶¶¶´´´´´´´´´´´´
´´´´´´´´´´´¶¢¢¢777o¢øo¢¢¢7¢´$´$´¢o´¢´o´71¶oø¶´$ø¢¢øøøøø¶¶¶´´´´´´´´´´´´
´´´´´´´´´´7¶o¢o7177oooo¢øø¶1¶1¶1¶¶o¶o¶o¶¶¶øø¶´¶ø¢¢¢øøøø¶¶¶´´´´´´´´´´´´
´´´´´´´´´´¢¶ø¢¢717oø¢øøøøø¶´¶´¶1¶¶7¶1¶1¶¶¶¶¶¶1$øø¢¢øøø¢¶¶¶´´´´´´´´´´´´
´´´´´´´´´´¶øoooo17o¢o¢¢ø¢ø¶´¶´¶1¶$1¶1¶1¶¶$øø¶øoø¢¢¢¢¢øo¶¶¶1´´´´´´´´´´´
´´´´´´´´´1¶¢ooo711ooo¢ooo¢ø´¶´¶1¶¶7¶1¶1¶¶øøøø¶1¢¢¢¢¢¢øo¶¶¶$´´´´´´´´´´´
´´´´´´´´´¶$¢¢¢oo11¢oo¢ooo¢ø´¶´¶1¶¶1¶1¶7¶¶$$$ø¶7øø¢¢¢¢ø¢$¶¶¶o´´´´´´´´´´
´´´´´´´´o¶øooooo17ooo¢¢ø$¶¶7¶1¶7¶¶o¶7¶o¶¶¶ø¶¶¶1øo¢¢¢¢¢¢o¶¶¶¶´´´´´´´´´´
´´´´´´´´¶øooo7777oooo¢ooo17´¢´¢´77´o´o´1´¶7$¶ø´¶o¢¢¢¢øøo¶¶¶¶¶´´´´´´´´´
´´´´´´´¶¶øøø¢7777o¢oøøøo$7o7ø1$1ø¢1ø1ø7o7¶o¶¶´¶¶ø¶7oøøø¢ø¶¶¶¶¶´´´´´´´´
´´´´´´ø¶ooo777777oooo¢¢´¢7ooø1$1ø¢1ø1ø7o7$´¶¶´¶o´¶ø7øøøøø¶¶¶¶¶ø´´´´´´´
´´´´´´¶$ø¢ø¢oo7o¢¢ø¢øø¢o$1ooo1ø1øo1ø1ø7o7¶o¶´$¶¶$¶¢oøøøø¢$¶¶¶¶¶ø´´´´´´
´´´´´¶$ooooo777ooooooo77¢11o7´o´o7´o´7´11¶¢ø´¶øøøø¢o¢oo¢¢o¶¶$¶¶¶1´´´´´
´´´´¢¶ø¢oooo7oo¢¢¢¢¢¢¢ooø¶øø¶7¶o¶¶o¶7¶ø¶¶$¶´¶¶øøøø¶o¢¢¢¢ø¢¢¶¶¶¶¶¶´´´´´
´´´´¶ø¢ooo77777o77oooo¢ø17´7ø´¶´$ø´¶´¶7¢¢$71$øøøøø¶$oøo¢¢¶$1¶¶¶¶¶¶´´´´
´´´¶¶oo7ooooooo¢o¢øøø¢¶¶¶¶ø¶¶´¶7¶¶7¶´¶oo¶¶´¶$¶ø$$ø¶ø1¶¢1o¶¶ø$¶¶¶¶¶1´´´
´´1¶øøø¢¢o7o77ooooooo7ø¶ø¶´o¶´¶o¶¶´¶1¶øo¶ø´¶oøø¢øø$¶7¶¶´¢¶¶¶¢o¶¶¶¶¶´´´
´´¶$oo¢ooo7777oo¢oooo7ø¶¢¶7ø¶7¶¢ø¶1¶o¶¶¢¶´ø¶ø$øø$ø$$¶¶¢¶¶¶$ø$¢¶oø¶¶ø´´
´´¶¢oooo¢oooo¢¢¢¢o¢¢o¢ø¶¢¢¶oøø1ø1¶7oø7¶øoo¢¶¶¶¶¶$¶¶ø$øøøøø$$¶¶¶¶¶$¶¶´´
´ø¶øø¢¢oooooooo¢¢o¢¢¢¢$¶¶ø¶¶$¶¶$¶¶¶¶$¶ø¶¶¶¶¶¢¶$$$$$øø$ø$ø¶¶¶¶ø$øø¢¶¶7´
´¶$ooooooooooooo¢ooooo¢ø¶$´¶o1¶´¶´o¶´¶7ø¶ø¶øøø¢øøø$$$¶¶¶ø¶7o¶¶¶¶¶ø¶¶¶´
´¶øøø¢¢¢o¢¢¢¢¢¢¢ø¢øøøøøo¢ø¶¶¶¶¶¶¶¶¶¶¶¶¶¶¢¶øø$$ø$ø¢øøø$¶$´¶¶´7¶¶¶¶¶¶¶¶´
´¶ø¢ø¢¢¢ooooo¢ooooooo¢ooø¢¶$ø¶¢øøø$ø$ø$¶ø¶¶øøøø$$ø$ø$¶¶¶ø¶ø´¶¶¶¶¶$¶¶¶´
´¶øøøøøø¢¢¢¢o¢oo¢¢ø¢¢øøoøøø¶ø¶ø¶¶ø¶o¶$oø$¶¶¶$øø$øø$$ø¶ø¶¶¶¶¶¶¶¶$$¶¶¶¶´
´¶¢¢¢ooooo¢oo¢¢ooo¢¢¢øøøø¶¶ø1o7ø¢øø$$ø¶$¶o¢¢ø$ø$øøøø¢øøøøøø$øø$ø$$¶¶¶´
´¶¶ø¢øø¢¢¢¢¢øø¢¢¢o¢oo¢o¢oooø$$$¶¶¶¶¶¶¶¶¶$¶¶¶¶¶ø$ø¶$¶$¶øø$øø¶¶$$$$¶¶¶¶´
´¢¶ø¢øøøøøøø¢¢ø¢øøøøøøøø$$ø$¶$øøøøøøø$øø$¶ø$¶¶ø¶ø$øøø$øøøøø¶¶$$$¶¶¶¶¶´
´7¶$¢o¢¢o¢ooo¢¢ø¢o¢¢¢¢o¢¢¢ø¢ø¢øøøøøøøøøøø$$øø$øøøøøøø$ø

MyNameIsRevolution
Veterano
# jan/06
· votar


Skider

correção: EU sou o cara.

Fatal Tragedy                                   



John Petrucci


-------------------|----------6--------|--6----------------|---------- --------|
-------------------|-------------------|-------------------|---------- --------|
--4----------------|-------------------|-------------------|---------- --------|
--2----------------|----------8--------|--8----------------|---------- --------|
--2----------------|----------7--------|--7----------------|---------- --------|
--0----------------|-------------------|-------------------|---------- --------|



---------------------|----------------------|-------------------|
----------------4----|----------------4-----|-------------------|
--4--------4---------|--4--------4----------|-------------------|
--4------------------|--4-------------------|-------------------|
--2------------------|--0----------------0--|-------------------|
---------------------|----------------3-----|--3----------------|



----------------------|----------------------|-------------------|
----------------------|----------------------|-------------------|
----------------------|-----------------4----|--3----------------|
----------------------|----------------------|-------------------|
-----4--5----2--------|---------4--5----2----|--1----------------|
--0--2--3----0--------|------0--2--3---------|-------------------|



------------------------|----------------------|---------------------- |
------------------------|----------------------|---------------------- |
-------------0----------|----------------------|-----------------4---- |
----------2-------------|----------------------|---------------------- |
----1--4--------4-------|-----4--5----2--------|---------4--5----2---- |
-------------------3----|--0--2--3----0--------|------0--2--3--------- |



-------------------|------------------------|---------------------|
--2----------------|------------------------|----------------4----|
-------------------|----------0--3----------|--4--------4---------|
-------------------|-------2--------2-------|--4------------------|
--4----------------|----4--------------1----|--2------------------|
-------------------|------------------------|---------------------|



---------------------|-----------|----------------------|------------- ---------|
----------------4----|-----------|----------------------|------------- ---------|
--4--------4---------|-----------|----------------------|------------- ----4----|
--4------------------|--2--------|----------------------|------------- ---------|
--0------------------|-----------|-----4--5----2--------|---------4--5 ----2----|
---------------------|--3--------|--0--2--3----0--------|------0--2--3 ---------|



-------------------|------------------------|----------------------|
-------------------|------------------------|----------------------|
--3----------------|------------------------|----------------------|
-------------------|----------2--5----------|----------------------|
--1----------------|----1--4--------4-------|-----4--5----2--------|
-------------------|-------------------3----|--0--2--3----0--------|



----------------------|-------------------|-------------------------|
----------------------|--2----------------|-------------------------|
-----------------4----|-------------------|-------------3-----------|
----------------------|-------------------|-------2--5-----2--------|
---------4--5----2----|--4----------------|----4--------------4--1--|
------0--2--3---------|-------------------|-------------------------|



---------------------|---------------------|---------------------|
----------------4----|----------------4----|---------------------|
--4--------4---------|--4--------4---------|---------------------|
--4------------------|--4------------------|--2------------------|
--2------------------|--0------------------|---------------------|
---------------------|---------------------|--3------------3--2--|



-------------------|-------------------|------------------|----------- --------|
-------------------|-------------------|------------------|----------- --------|
-------------------|--4----------------|------------------|----------- --------|
--2----------------|--4----------------|------------------|--4-------- --------|
--2----------------|--2----------------|------------------|--4-------- --------|
--0----------------|-------------------|------------------|--2-------- --------|



------------------|-------------------|------------------|------------ -------|
------------------|-------------------|------------------|------------ -------|
------------------|-------------------|------------------|------------ -------|
------------------|--2----------------|------------------|--2--------- -------|
------------------|--2----------------|------------------|--2--------- -------|
------------------|--0----------------|------------------|--0--------- -------|



------------------|---------------------|-----------------------|
------------------|---------------------|-----------------------|
------------------|---------------------|-----------------------|
------------------|------------2--------|--------------2--------|
------------------|--2---------2--------|--------------2--------|
------------------|--0------0--0--------|--0--0--0--0--0--------|



---------------------|---------------------|---------------------|
---------------------|---------------------|---------------------|
---------------------|---------------------|---------------------|
------------2--------|------------2--------|---------------------|
--1---------1--------|------------1--------|--4------------------|
--0------0--0--------|------0--0--0--------|--2------------2--4--|



---------------------|-------------------|---------------------|
---------------------|-------------------|---------------------|
--2------------------|-------------------|---------------------|
--2------------------|--6----------------|--6------------------|
--0------------0--2--|--4----------------|--7------------------|
---------------------|-------------------|--4------------4--5--|



-------------------|-------------------------|-----------------|
-------------------|-------------------------|-----------------|
--4----------------|-------------------------|-----------------|
--4----------------|-------------------------|-----------------|
--2----------------|--2----0--4--2--4--------|--4--------------|
-------------------|-------------------4--0--|--2--------2--4--|



-----------------|---------------|---------------|---------------|
-----------------|---------------|---------------|---------------|
-----------------|---------------|---------------|--2------------|
--2--------------|--6------------|--2------------|--2------------|
--0--------0--2--|--4------------|---------------|--0------------|
-----------------|---------------|--4------------|---------------|



-----------------------|----------|----------------------|----------|
-----------------------|----------|----------------------|----------|
------------------4----|----------|----------------------|----------|
--2---1-----------4----|----------|----------------1--4--|----------|
----------2-------2----|----------|--0--2--3--2----------|----------|
--------------4---2----|----------|----------------------|----------|



----------------------------|--12b---15----|----------------------|--- -------|
----------------------------|--14b---17----|----------------------|--- -------|
----------------------------|--------------|----------------------|--- -------|
----------------------------|--------------|-------------------4--|--- -------|
------------------------14--|--------------|--0-------------6-----|--- -------|
--11--12--14--12----15------|--------------|-----7--8--7----------|--- -------|



----------------------------|--15p14h15p14h15p14-------|
----------------------------|--17p16h17p16h17p16-17----|
----------------------------|--------------------16----|
----------------------------|--------------------------|
------------------------14--|--------------------------|
--11--12--14--12----15------|--------------------------|



---------------------------------|--------------------------|
---------------------------------|--------------------------|
---------------------------------|--------------------------|
--7---------5--------------------|--------------------------|
-------------------------0-------|--2-2-2--2------2-2-2--2--|
-----7-7-5-----5--3--2-3---3-2-3-|--0-0-0--0------0-0-0--0--|


Léo
Veterano
# jan/06
· votar


´´´´´´´´´´´oø´´´´´´´´´´´´´´´´´´´´´´´´´´´´´´´´´´´´´´´´´´´´´1¶
´´´´´´´´´´´´¶¶¶¶¶ø´´¶¶¶1´´´´´´´´´´´´´´´´´´´´´´´´´´´´´´´´´´´´
´´´´´´´´´´´´´¶¶¶¶¶¶7¶ø$´´´´´´´´´´´´´´´´´´´´´´´´´´´´´´´´´´´´´
´´´´´´´´´´´´´´¶¶¶¢¶¶ø´´¶¶¶´´´´´´´´´´´´´´´´´´´´´´´´´´´´´´´´´´
´´´´´´´´´´´´´´´¶oo¶¶¶¶¢¶¶¶´´´´´´´´´´´´´´´´´´´´´´´´´´´´´´´´´´
´´´´´´´´´´´´´´´´¶o´¶$¶¶¢´´¢¶¶´´´´´´´´´´´´´´´´´´´´´´´´´´´´´´´
´´´´´´´´´´´´´´´´1¶1´7¶¶¶$´¶¶¶´´´´´´´´´´´´´´´´´´´´´´´´´´´´´´´
´´´´´´´´´´´´´´´´´¢¶ø´´¶¶¶¶o´´¶¶1´´´´´´´´´´´´´´´´´´´´´´´´´´´´
1´´´´´´´´´´´´´´´´´¶¶71´7¶$¶¢ø¶¶¶´´´´´´´´´´´´´´´´´´´´´´´´´´´´
1´´´´´´´´´´´´´´´´´´¶¶¶71´¶¶¶ø´´´oøo´´´´´´´´´´´´´´´´´´´´´´´´´
´´´´´´´´´´´´´´´´´´´´¶¶¶¢11$¶ø¶o´¶¶¶7´´´´´´´´´´´´´´´´´´´´´´´´
´´´´´´´´´´´´´´´´´´´´7¶7´o´´¢ø¶¶ø1´´´¢´´´´´´´´´´´´´´´´´´´´´´´
´´´´´´´´´´´´´´´´´´´´´¶¶¶¶7$oø7¶o¶1´$¶¶´´´´´´´´´´´´´´´´´´´´´´
´´´´´´´´´´´´´´´´´´´´´´¶¶ø¶¶7¶7¢¢¶¶¶7´´´´´´´´´´´´´´´´´´´´´´´´
´´´´´´´´´´´´´´´´´´´´´´´¶ø¶oø¢$7øø¶¶¶1´´´´´´´´´´´´´´´´´´´´´´´
´´´´´´´´´´´´´´´´´´´´´´´1¶ø7¶o$1øø¶ø1´´´´´´´´´´´´´´´´´´´´´´´´
´´´´´´´´´´´´´´´´´´´´´´´´¶7¶øo¶¢o¶7´´´´´´´´´´´´´´´´´´´´´´´´´´
´´´´´´´´´´´´´´´´´´´´´´´´¶¢øo¢7øø¶´´´´´´´´´´´´´´´´´´´´´´´´´´´
´´´´´´´´´´´´´´´´´´´´´´´´¶¶o¶¶o¶¶o´´´´´´´´´´´´´´´´´´´´´´´´´´´
´´´´´´´´´´´´´´´´´´´´´´´´¶¶$¶¶¶¶¶o´´´´´´´´´´´´´´´´´´´´´´´´´´´
´´´´´´´´´´´´´´´´´´´´´´´´oø7oooo¶7´´´´´´´´´´´´´´´´´´´´´´´´´´´
´´´´´´´´´´´´´´´´´´´´´´´´ø¶oo¢¢¢¶7´´´´´´´´´´´´´´´´´´´´´´´´´´´
´´´´´´´´´´´´´´´´´´´´´´´´ø¶ø¢øøø¶o´´´´´´´´´´´´´´´´´´´´´´´´´´´
´´´´´´´´´´´´´´´´´´´´´´´´o7oooo7ø7´´´´´´´´´´´´´´´´´´´´´´´´´´´
´´´´´´´´´´´´´´´´´´´´´´´´ø¢ooø¢¢¶¢´´´´´´´´´´´´´´´´´´´´´´´´´´´
´´´´´´´´´´´´´´´´´´´´´´´´ø$øoøoo¶o´´´´´´´´´´´´´´´´´´´´´´´´´´´
´´´´´´´´´´´´´´´´´´´´´´´´ø$¢oøoo¶o´´´´´´´´´´´´´´´´´´´´´´´´´´´
´´´´´´´´´´´´´´´´´´´´´´´´$¶ø¢ø¢o¶ø´´´´´´´´´´´´´´´´´´´´´´´´´´´
´´´´´´´´´´´´´´´´´´´´´´´´ø777¢77$ø´´´´´´´´´´´´´´´´´´´´´´´´´´´
´´´´´´´´´´´´´´´´´´´´´´´´¶$øo$o7¶$´´´´´´´´´´´´´´´´´´´´´´´´´´´
´´´´´´´´´´´´´´´´´´´´´´´´¶øøoøo1¶ø´´´´´´´´´´´´´´´´´´´´´´´´´´´
´´´´´´´´´´´´´´´´´´´´´´´´o7øoøo7$ø´´´´´´´´´´´´´´´´´´´´´´´´´´´
´´´´´´´´´´´´´´´´´´´´´´´´¶717¢o1$$´´´´´´´´´´´´´´´´´´´´´´´´´´´
´´´´´´´´´´´´´´´´´´´´´´´´¶øøoøo1¶¶´´´´´´´´´´´´´´´´´´´´´´´´´´´
´´´´´´´´´´´´´´´´´´´´´´´´¶øøoøo7$¶´´´´´´´´´´´´´´´´´´´´´´´´´´´
´´´´´´´´´´´´´´´´´´´´´´´´ø111o71¢$´´´´´´´´´´´´´´´´´´´´´´´´´´´
´´´´´´´´´´´´´´´´´´´´´´´´¶¢øoøo7$¶´´´´´´´´´´´´´´´´´´´´´´´´´´´
´´´´´´´´´´´´´´´´´´´´´´´´¶oø7øo7ø¶´´´´´´´´´´´´´´´´´´´´´´´´´´´
´´´´´´´´´´´´´´´´´´´´´´´´ø7$oøo7ø¶´´´´´´´´´´´´´´´´´´´´´´´´´´´
´´´´´´´´´´´´´´´´´´´´´´´´ø´11o77oø´´´´´´´´´´´´´´´´´´´´´´´´´´´
´´´´´´´´´´´´´´´´´´´´´´´´¶o$o$o¢ø¶´´´´´´´´´´´´´´´´´´´´´´´´´´´
´´´´´´´´´´´´´´´´´´´´´´´´¶o$oøo¢ø¶´´´´´´´´´´´´´´´´´´´´´´´´´´´
´´´´´´´´´´´´´´´´´´´´´´´´ø´11o77o$´´´´´´´´´´´´´´´´´´´´´´´´´´´
´´´´´´´´´´´´´´´´´´´´´´´´¶o$oøoø¢¶´´´´´´´´´´´´´´´´´´´´´´´´´´´
´´´´´´´´´´´´´´´´´´´´´´´1$¢$7øoo¢¶´´´´´´´´´´´´´´´´´´´´´´´´´´´
´´´´´´´´´´´´´´´´´´´´´´´´7´71o777$´´´´´´´´´´´´´´´´´´´´´´´´´´´
´´´´´´´´´´´´´´´´´´´´´´´´¶oøoøo¢ø¶´´´´´´´´´´´´´´´´´´´´´´´´´´´
´´´´´´´´´´´´´´´´´´´´´´´1$oøoøo¢ø¶´´´´´´´´´´´´´´´´´´´´´´´´´´´
´´´´´´´´´´´´´´´´´´´´´´´1o´117777ø´´´´´´´´´´´´´´´´´´´´´´´´´´´
´´´´´´´´´´´´´´´´´´´´´´´o$oøoøooø¶´´´´´´´´´´´´´´´´´´´´´´´´´´´
´´´´´´´´´´´´´´´´´´´´´´´o11øo¢oo¢¶´´´´´´´´´´´´´´´´´´´´´´´´´´´
´´´´´´´´´´´´´´´´´´´´´´´o¢17177o7ø´´´´´´´´´´´´´´´´´´´´´´´´´´´
´´´´´´´´´´´´´´´´´´´´´´´7ø7øoøo¢¢¶1´´´´´´´´´´´´´´´´´´´´´´´´´´
´´´´´´´´´´´´´´´´´´´´´´´7¢17177o7ø1´´´´´´´´´´´´´´´´´´´´´´´´´´
´´´´´´´´´´´´´´´´´´´´´´´1ø7øoøo¢o¶1´´´´´´´´´´´´´´´´´´´´´´´´´´
´´´´´´´´´´´´´´´´´´´´´´´1$oø7ø7oo¶1´´´´´´´´´´´´´´´´´´´´´´´´´´
´´´´´´´´´´´´´´´´´´´´´´´7ø171o7oo$7´´´´´´´´´´´´´´´´´´´´´´´´´´
´´´´´´´´´´´´´´´´´´´´´´´7ø¢$oøo¢¢o¢´´´´´´´´´´´´´´´´´´´´´´´´´´
´´´´´´´´´´´´´´´´´´´´´´´71´1´o1o7o7´´´´´´´´´´´´´´´´´´´´´´´´´´
´´´´´´´´´´´´´´´´´´´´´´´7¶o$oøoøø¶o´´´´´´´´´´´´´´´´´´´´´´´´´´
´´´´´´´1´´´´´´´´´´´´´´´7ø´7177ooø7´´´´´´´´´´´´´´´´´´´´´´´´´´
´´´´´´´¶¶´´´´´´´´´´´´´´1¶o$oøoø¢$o´´´´´´´´´´´´´´´´´´´´´´´´´´
´´´´´¶¶¶ø´´´´´´´´´´´´´´7ø´7171o7oo´´´´´´´´´´´´´´´´´´´´´´´´´´
´´´´¶¶¶¶¶´´´´´´´´´´´´´´o¶o$o¶7øø¶ø´´´´´´´´´´´´´´´´´´´´´´´´´´
´´´¶¶¶ø¶¶´´´´´´´´´´´´´´¢1171o1o7¢¢´´´´´´´´´´´´´´´´´´´´´´´´´´
´´´¶¶øø¶¶´´´´´´´´´´´´´´øøoø¢$7$ø¶ø´´´´´´´´´´´´´´´´´´´´´´´´´´
´´´¶$øø¶¶´´´´´´´´´´´´´´øø17171o7oo´´´´´´´´´´´´´´´´´´´´´´´´´´
´´´¶$øø$¶7´´1´´´´´´´´´´¢7o¶¢$o¶ø¶ø´´´´´´´´´´´´´´´´´´´´´´´´´´
´´7¶øøøø¶¶´´1´´´´´´´´´´o$1o1o1o7¢o´´´´´´´´´´´´´´´´´1´´´´´´´´
´´´¶$øøø$¶$´´´´´´´´´´´´o¶1¢7¢7¢7ø¢´´´´´´´´´´´´´´´¶¶¶¶1´´´´´´
´´´¶¶ø¢¢ø¶¶o´´´´´´´´´´´oo7¶oøoøø¶$´´´´´´´´´´´´´´´¶øø¶¶´´´´´´
´´´¶¶øøøøø¶¶¶ø´´´´´´´´´7$1ø1¢7øoø¢´´´´´´´´´´´´´´´¶o¶¢¶1´´´´´
´´´´¶$o¢øøø¶¶¶¶´´´´´´´¶´$1¢1ø7¢oøo´´´´´´´´´´´´´´1¶o¶¶¶7´´´´´
´´´´ø¶øøøøøø$¶¶¶¶¶¶¶¶¶¶´¢o¶7$7$o¶ø´´´´´´´´´´´´´´¶¶ø¶¶¶o´´´´´
´´´´´¶$ooo¢¢øø¶¶¶¶¶$¶¶ø´ø1¢1$1$o¶¢´´´´´´´´´´´´´o¶¶¶$¶¶1´´´´´
´´´´´7¶¶$øøøøø¢¢¢¢oo¢$¢´$1ø7$1ø7ø7´´´´´´´´´´´´1¶¶¶øø¶¶´´´´´´
´´´´´´¶¶oooooooo¢øøøø¶ø´¶7ø7$7ø¢¶1$´´´´´´´´´´¶¶¶ø¶ø¶¶7´´´´´´
´´´´´´´¶$øo¢ø¢¢ø¢ø¢¢ø¶o´o7ø7ø7¢71´¶¶ø71´´´¶¶¶¶¶¢ø¶¶¶¶´´´´´´´
´´´´´´´o¶ø¢¢øøo¢¢øø¶¶¶ø´7´1´1´71o´¶¶¶¶¶¶¶¶¶¶¶¢¢¢ø¶¶¶o´´´´´´´
´´´´´´´´¶¶øooooooo7oøø¶7¶ø¶ø¶¢¶$¶¢ø¶o¶¶ø¢øøoo¢ø¢¶¶¶¶´´´´´´´´
´´´´´´´´7¶¢oooooo¢¢¢ø7¢´$´ø1ø´¢1¢11¶o¶1¶øø¢¢ø¢øø¶¶¶´´´´´´´´´
´´´´´´´´´¶ø¢¢ooo¢ø¢¢1oø´¶1ø7ø1ø7ø77¶1¶7$ø¢ø¢øø¢¶¶¶¢´´´´´´´´´
´´´´´´´´´¶øø¢o77ooo¢ø7ø´¶1ø7ø´ø7ø17¶o¶oo$¢¢ø¢ø¢¶¶¶´´´´´´´´´´
´´´´´´´´´¶ø¢¢777øøø¢øo¢´$1ø1ø´o´7´7$o¶ø1¶¢¢øøø¢¶¶o´´´´´´´´´´
´´´´´´´´´¶ø¢o117ooooøø¶´¶o¶o¶7¶ø¶o¶¶ø¶¶1ø¢¢ø¢ø¢¶¶o´´´´´´´´´´
´´´´´´´´´¶ø¢¢717ø¢øøøø¶´¶7¶7¶1¶o¶7¶¶¶$¶7¢ø¢øøøo¶¶¶´´´´´´´´´´
´´´´´´´´o¶ooo717ø¢¢¢¢ø$´¶7¶7¶1¶o¶1¶øøø¶1¢¢¢¢¢øo¶¶¶´´´´´´´´´´
´´´´´´´´¶øooo7´7oo¢oo¢$´¶7¶7¶1¶o¶7¶$$$¶7¶¢¢¢¢¢¢¶¶¶¶´´´´´´´´´
´´´´´´´ø¶øoooo1ooo¢oø$¶1¶¢¶ø¶7¶¢¶o¶¶ø¶¶7$o¢¢¢¢¢¢¶¶¶o´´´´´´´´
´´´´´´´¶øoo7771ooo¢7ø7o´¢´o´o´o´o´1¶7¶¶´¶oo¢¢¢¢o¶¶¶¶´´´´´´´´
´´´´´´¶$¢¢¢777o¢¢øøoø7o7¢7¢7ø´ø1ø17¶7¶ø´¶¢¶7oøø¢$¶¶¶¶´´´´´´´
´´´´´$¶¢ooo777ooo¢øo7oo7¢7¢7ø´ø7ø17¶1¶´¶¶´¶øoøøø$¶¶¶¶¶´´´´´´
´´´´1¶ø¢¢¢o77o¢¢o¢o7$1777171o´o´7´1¶¢¶´¶¶¶¶7¢¢¢¢oø¶¶¶¶¶´´´´´
´´´´¶øo7oo77o¢o¢¢¢o7¢øø¢¶o¶o¶1¶7¶7$¶ø´¶$øøøøo¢¢¢¢7¶¶¶¶¶¢´´´´
´´´ø¶ø¢¢oo777oooo¢o¢o7o´ø´$7¶´¶1¶7øø71¶øøøø¶o¢o¢ø¶oo¶¶¶¶´´´´
´´´¶¢o7oooo7o¢oø¢øo¶ø¶¶ø¶7¶7¶1¶1¶´¶¶´$¶$øø$¶7¶$1o¶¶ø¶¶¶¶¶´´´
´´¶¶øøoo7777oo7o7o7¶¶¶71¶´¶o¶´¶1¶7¶$´¶o¢¢ø¢$o¶¶´ø¶¶ø7¶$¶¶1´´
´´¶ooooooo7o¢øøø¢oo¶¶¶¢o¶o$7¶7¶o¶ø¶´¢¶¶$ø$¶$$¶ø¶¶$ø¶$¶ø$¶¶´´
´ø¶¢¢¢o¢o7oo¢¢oooo¢¶¶¶¢øøo¢o¶7ø¢¶¶¶$ø¶¶¶¶¶$¶$$øøø$¶¶ø$øø¶¶o´
´¶$¢oooooooooooooooø¶¶7¶¢¶o¢¶ø¶7¶´¶¶¶øø¢øøøøø$$¶$¶ø¶¶¶$øø¶¶´
´¶ø¢o¢ooooo¢¢¢¢øøøø¢ooø¶$¶¶¶¶$¶¶¶¶$øøø$øøøøøø$¶¶´¶7´¶¶¶¶¶¶¶´
´¶øøø¢¢¢¢¢o¢oooo¢o¢ooo¶¶ø¶ø$ø¶ø$ø¶ø¶¶øøø$$øøø¶¶¶ø¶7o¶¶¶¶¶¶¶´
´¶øøøø¢¢¢¢o¢oo¢ø¢¢øø¢øø¶ø¶ø¶o¶o¶7¶¢ø¶$$ø$øøøø¶ø¶¶¶¶¶¶¶ø$¶¶¶´
´¶ø¢ooooo¢o¢¢ooooo¢¢o$¶ø77o¢ø$¶$¶¶¶øøø$ø$ø$øøøøøøøø$øøø$¶¶¶´
´¶$o¢øø¢¢¢¢øø¢øøøøøøøøø¶¶¶¶¶¶¶¶$$øø$$¶¶ø$ø¶$¶¶øø$ø$¶¶¶¶¶¶¶¶´
´ø¶ø¢øø¢ø¢o¢ø¢oo¢¢¢¢¢¢ø¢øøø¢øø$ø$ø$¶¶$$ø$øøøø$ø$$ø$$$ø$$¶¶¶´
´1¶¶øøøøøøøøøø$$ø$øø$¶¶$$øøø$ø$$$$¶¶¶$$$¶¶øøø$$$ø¶¶¶¶¶¶¶¶¶´´
´´ø¶¶ø¢¢øøøøø¢¢øøøøø$ø¶øø$øø$$$$øø$$$¶$¶øø$$$ø$ø$$ø$$$¶¶¶´´´
´´´ø¶¶¶øøøø$$$ø¶øø$$$ø¶$¶¶$¶¶¶$¶¶$¶$¶$$¶øø$$¶$¶ø$¶$¶¶¶¶¶´´´´
´´´´´¶¶¶¶$øøø$ø$$$$ø$$¶ø$ø¢øø¶$¶¶$¶$¶¶¶¶¶¶¶¶¶¶¶¶¶¶¶¶¶¶´´´´´´
´´´´´´´$¶¶¶¶¶$ø$¶¶$$¶¶¶$¶¶ø¶¶¶$¶¶¶¶¶¶¶¶¶¶¶¶¶¶¶¶¶¶¶¶ø´´´´´´´´
´´´´´´´´´´7¶¶¶¶¶¶¶¶¶¶¶¶¶¶¶¶¶¶¶¶¶¶¶¶¶¶¶¶¶¶¶¶¶¶¶¶¶¢´´´´´´´´´´´
´´´´´´´´´´´´´´´17ø¶¶¶¶¶¶¶¶¶¶¶¶¶$¶¶¶$øøø71´´´´´´´´´´´´´´´´´´´
´´´´´´´´´´´´´´´´´´´´´´´´´´´´o¶´´´´´´´´´´´´´´´´´´´´´´´´´´´´´´

MyNameIsRevolution
Veterano
# jan/06
· votar


--------------------------------------------------|

--------------------------------------------------|
----------------4-5-7-5-4---------------4-5-7-5-4-|
----4-5-7-5-4---------------4-5-7-5-4-------------|
--7-----------7-----------7-----------7-----------|
--------------------------------------------------|



--------------------------------------------------|
----------------------------------------5-7-8-7-5-|
----------------4-5-7-5-4---5-7-9-7-5-------------|
----4-5-7-5-4-------------9-----------9-----------|
--7-----------7-----------------------------------|
--------------------------------------------------|



-----------------7-8-10-8-7----------------8-10-12-10-8-|
----7-8-10-8-7----------------7-8-10-8-7----------------|
--9------------9------------9------------9--------------|
--------------------------------------------------------|
--------------------------------------------------------|
--------------------------------------------------------|



------------------12-14-15-14-12----14-15-17-15-14----15-17-19-17-15-|
----7-8-10-8-7-15----------------17----------------19----------------|
--9------------------------------------------------------------------|
---------------------------------------------------------------------|
---------------------------------------------------------------------|
---------------------------------------------------------------------|



---------------------------------------------|
--------19----19-19-20-23-20-19-19----19-----|
--21b------21b---------------------21----21--|
---------------------------------------------|
---------------------------------------------|
---------------------------------------------|



-----------------------------------------21--|
--------19----19-19-20-23-20-19-19----19-----|
--21b------21b---------------------21--------|
---------------------------------------------|
---------------------------------------------|
---------------------------------------------|



-------------------------------------------------------|
----19-19-19-20-0-17-17-17-19-0-15-15-15-17-0-14-14-14-|
-------------------------------------------------------|
-------------------------------------------------------|
-------------------------------------------------------|
-------------------------------------------------------|



----------------------------------------------------------|
--15-0-12-12-12-14-0-11-11-11-12-0----------11-0----------|
-----------------------------------12-12-12------11-12-11-|
----------------------------------------------------------|
----------------------------------------------------------|
----------------------------------------------------------|



------------------------|-------------------------------------|
---------7-8------7---7-|--8-7---7----------------------------|
--9-----------------9---|------9---9-7---7--------------------|
------------------------|--------------9---7------7-----------|
------------------------|--------------------10-7---7-10-9----|
------------------------|----------------------------------10-|



------------------------7-10-8-10-8-7------|
----------------------8---------------10-8-|
---------7--------7-9----------------------|
-------9---10-9-9--------------------------|
--7-10-------------------------------------|
-------------------------------------------|



------------------7-9-7-6-7-9-7-6-----------------9-10-9-7-9-10-9-7-|
--7-8-7-6-7-8-7-6-----------------7-8-7-6-7-8-7-6-------------------|
--------------------------------------------------------------------|
--------------------------------------------------------------------|
--------------------------------------------------------------------|
--------------------------------------------------------------------|



------------------10-12-10-9-10-12-10-9-14-15-14-12-14-15-14-12------- ----------
--7-8-7-6-7-8-7-6----------------------------------------------------- ----------
----------------------------------------------------------------11-12- 11-10-----
---------------------------------------------------------------------- ----------
---------------------------------------------------------------------- ------9-10
---------------------------------------------------------------------- ----------



-----------------------------------------|
-----------------------------------12-12-|
--------------------11-11-11-11-11-------|
--------9-9-9-9-9-9----------------------|
--7-7-7----------------------------------|
-----------------------------------------|



-----------14-14-14----------19-19-19-------20-20-|
--12-12-12----------17-17-17----------19-19-------|
--------------------------------------------------|
--------------------------------------------------|
--------------------------------------------------|
--------------------------------------------------|



--21-22-21-19-18-------18-------------------------------------------|
-----------------20-19----20-19-------------------------------------|
--------------------------------21-19-18-21-19-18----18-19-21-19-18-|
--------------------------------------------------21----------------|
--------------------------------------------------------------------|
--------------------------------------------------------------------|



--------------------------------------------14h18-21p18p14------------ -------|
-----------------------------------------14----------------14--------- -------|
--------------------------------------15----------------------15------ -------|
--21-20----------------------------16----------------------------16--- -------|
--------22-21-19-------------13-16----------------------------------16 -13----|
-----------------22-21-18/14------------------------------------------ ----14-|



-----------------------------------------------17-19-20-24--23/20-|
--------------------------------------17-19-20--------------------|
-----------------------------14-16-17-----------------------------|
--------------------14-16-17--------------------------------------|
-----------12-14-15-----------------------------------------------|
--12-14-15--------------------------------------------------------|



-----14-------17-------------14-------19-17----17-|
--17b---17-14----19-17-19-17b---17----------19----|
-----------------------------------18-------------|
--------------------------------------------------|
--------------------------------------------------|
--------------------------------------------------|



--19h20-19-17-20-19-------17-------------------------|
--------------------19-17----19-17-16-19-17-16-------|
-----------------------------------------------17----|
--------------------------------------------------19-|
-----------------------------------------------------|
-----------------------------------------------------|



-----------------------------------------------------|------------------|
-----------------------------------------------------|------------------|
--16h17-16-14-17-16-------14-------------------------|------------------|
--------------------16-14----16-14-13-16-14-13-------|------------------|
-----------------------------------------------15-12-|------------------|
-----------------------------------------------------|------------------|




Léo
Veterano
# jan/06
· votar


a minha eh melhor

Pati Cobain
Veterano
# jan/06
· votar


Léo
a minha eh melhor (2) ops, a sua hehe

Léo
Veterano
# jan/06 · Editado por: Léo
· votar


fiz merda...

Léo
Veterano
# jan/06
· votar


Pati Cobain
hehe eh programa q faiz

Pati Cobain
Veterano
# jan/06
· votar


Léo
haha eu sei , mas fica massa \o

Jenny naum sei qto
Veterano
# jan/06
· votar


nossa meu
noooossa
mudou minha vida
naum sou amais a msm jenny

Enviar sua resposta para este assunto
        Tablatura   
Responder tópico na versão original
 

Tópicos relacionados a Que demais veio...