Fórum Cifra Club - maior fórum de m&uacite;sica do Brasil

ajuda com tablatura como se lê isso ?

Autor Mensagem
eronslap
Veterano
# abr/07


sera que alguem por favor poderia postar algo didático sobre tablatura ? confesso que fui le uma apostila e fiquei viakando na maionese...

alguem poderia me dizer como le aliko ?

obrigado .

Rodrigo_Iron
Veterano
# abr/07 · Editado por: Rodrigo_Iron
· votar


Cara é simples, a primeira coisa q vc deve saber, é que essas linhas representam as cordas do violão(guitarra).


e-----essa é a corda mais fina(o mizinho)------------
B------------------------------------------------------
G------------------------------------------------------
D------------------------------------------------------
A------------------------------------------------------
E-----essa é a corda mais grossa(o mizão)---------------


____//_____________________//_________________//_____________

Um numero em uma linha significa que você deve apertar a casa relativa àquele numero na corda em que ele está:


e------------------------------------------------------
B------------------------------------------------------
G--2----------------------------------------------------
D------------------------------------------------------
A------------------------------------------------------
E------------------------------------------------------


Nesse exemplo você deve apertar a segunda casa da terceira corda(Sol).

_________________//_______________//_________________//____

Quando temos um numero zero, significa que devemos tocar a corda solta.


e------------------------------------------------------
B------------------------------------------------------
G------------------------------------------------------
D----0--------------------------------------------------
A------------------------------------------------------
E------------------------------------------------------


Nesse caso deveríamos tocar a quarta corda(Ré) solta.

___________________//_____________//_____________________

Um numero um em cima do outro devem ser tocados juntos, como acordes:

e------5------------------------------------------------
B------5-----------------------------------------------
G------5------------------------------------------------
D------------------------------------------------------
A------------------------------------------------------
E------------------------------------------------------


Nesse caso deveriamos fazer uma pesatana na quinta casa tocando a quinta casa das três primeiras cordas do instrumento, todas juntas, soando assim um acorde.

_____________//_____________//_______________//____________

Numeros seguidas são tocadas separadas:


e------------0------------------------------------------
B------1--3----------------------------------------------
G---2---------------------------------------------------
D------------------------------------------------------
A------------------------------------------------------
E------------------------------------------------------


Isso soaria como uma melodia, nota após nota (e não todas juntas).

eronslap
Veterano
# abr/07
· votar


Rodrigo_Iron

opaa.. obrigado , posso dizer q aprendi com certeza, vlw..

Percival
Veterano
# abr/07
· votar


b^ bend - voce deve erguer a corda com ela ainda soando...
~ vibrato
h - hammer-on - tocar a corda com a palheta e na proxima casa apenas com o dedo da mão esquerda, por exemplo da casa 3 para a 5...
p - pull-off - puxar a corda com o dedo pra que ela soe, por exemplo, da casa 5 para a 3..
t - tapping - tocar as casas com os dedos da mão direita...

mais ou menos isso... =p

eronslap
Veterano
# mai/07
· votar


Percival

vlw vlw vlw vlw.....

Sam Keat
Veterano
# dez/09
· votar


show

eu tbm aprendi um pouco com as video aulas do cifra club tv

Clauber guns
Veterano
# dez/09
· votar


=]

Sam Keat
Veterano
# dez/09
· votar


Clauber guns
tnks
;)

Sedank
Veterano
# dez/09
· votar


post antes do close

LeandroP
Moderador
# dez/09 · Editado por: LeandroP
· votar


Sedank

Sem flood - É pior porque sobra pra você, belê?!

Ele usou a busca ;)

Eny
Veterano
# jan/10
· votar


Quero aprender a introdução da música Novos Céus do Oficina G3.
Alguém pode me ajudar?
É que eu não entendi direito a tab q tá no site.

Necrophagist
Veterano
# jan/10 · Editado por: Necrophagist
· votar


Eny
larga o crentemetal e pega um lance mais tr00 tipo Slayer :D


sem zueira agora, cara eu sou um adepto do guitar pro pra meios-didaticos
voce tem esse programa? tentou achar alguma tab dessa musica pra GP?

Eny
Veterano
# fev/10
· votar


Necrophagist
É que eu gosto msm desa música... (rsrs)

Não tenho GP não.

Clauber guns
Veterano
# mar/10
· votar


Eny
Cara, tenta baixar o Guitar Pro vai te ajudar muito
No mais, não curto Oficina (nada contra quem gosta) não posso te ajudar :S




maaaaaaaaaano, esse tópico me ajudou muito quando eu tava aprendendo a ler tabs, vendo os posts agora me deu mó sensação nostalgica uhahsduhshuauhadsuh

Eny
Veterano
# mar/10
· votar


Clauber guns
Valeu!

Quanto a curtir Oficina, eu só gosto mesmo de algumas músicas, a exemplo desta aí.

Enviar sua resposta para este assunto
        Tablatura   
 

Tópicos relacionados a ajuda com tablatura como se lê isso ?

289.190 tópicos 7.546.149 posts
Fórum Cifra Club © 2001-2014 Studio Sol Comunicação Digital