Fórum Cifra Club - maior fórum de m&uacite;sica do Brasil

Escalas desenhadas, me passem por favor

Autor Mensagem
DuDub
Veterano
# abr/07


alguem poderia me passar escalas desenhadas como a do exemplo a baixo pois eu nao manjo como que faz pra passar as escalas para o papel

vlw galera muito obrigado

SAUDE


e|---------------------------5-8--------8-5--------------------------- ---
B|----------------------5-8------------------8-5---------------------- ---
G|-----------------5-7----------------------------7-5----------------- ---
D|------------5-7---------------------------------------7-5----------- ---
A|-------5-7--------------------------------------------------7-5----- ---
E|--5-8-------------------------------------------------------------8- 5--

Ratman
Veterano
# abr/07 · Editado por: Ratman
· votar


Editado

Ratman
Veterano
# abr/07 · Editado por: Ratman
· votar


Desisto, não estou conseguindo colocar o link!

Minow
Veterano
# abr/07
· votar


DuDub
Basta você saber as notas da escala, e achar elas no braço, aí você monta os desenhos.

(Isso que você postou é uma penta menor de Lá. Ou uma penta maior de dó, depende do ponto de vista =P)

Bruh_figura
Veterano
# abr/07
· votar


Cara poxa vai da mt trabalho escreve tds as escalas em tds as posiçoes...que escala vc queria??Vo posta o primero movimento da de do...so pra vc ter uma ideia ok??se vc me falar o que vc quer xatamente acho que posso te ajudar...



e-----------------------------0-1-3-3-1-0--------------------
B-----------------------0-1-3-------3-1-0--------------------
G-------------------0-2-------------------2-0--------------
D-------------0-2-3----------------------------3-2-0---------
A-------0-2-3----------------------------------------3-2-0---
E-0-1-3----------------------------------------------------3-1-0


Cara ali nakela hora que fico na msma hora na e na real nem eh ao smmo tempo so que nao tem es[aço entao toca as 6 notas da e aih desce pra B...entende??e..no final fico u=o 1-0 em baxo mais eh so pq nao tinha espaço tbm...

Espero que seja isso o que vc quer...mas me diga exatamente que eu tento fazer ok??


Rafbss
Veterano
# abr/07
· votar


desculpa ae interronper mas vejam esse topico i mi ajudem por vor =)
Violoes Menphis by Tagima (menphis?) o que significa.

DuDub
Veterano
# abr/07
· votar


Bruh_figura

ae brother vlw pelo interesse, entao se nao for pedir d+ gostaria que voce pudesse me passa as pentatonicas de CDEFGAB

eh isso ae brother vlw

SAUDE

Mega
Veterano
# abr/07
· votar


Bruh_figura
Se for tocada desse jeito a sonoridade/sensação inicial vai ser de Frígio, e não da escala de Dó maior.

Rodrigo_Iron
Veterano
# abr/07
· votar


ae brother vlw pelo interesse, entao se nao for pedir d+ gostaria que voce pudesse me passa as pentatonicas de CDEFGAB


Cara, você sabendo uma pentatônica você saberá praticamente todas.Porque você vai saber o SHAPE, ou seja, o "desenho" da escala no braço do violão.

Um exemplo:


e---------------58-85--------------------------------------
B-------------58-----85------------------------------------
G-----------57---------75----------------------------------
D---------57-------------75--------------------------------
A-------57-----------------75------------------------------
E-----58---------------------85----------------------------



Essa é a penta de Lá menor como ja disseram certo??Agora observe que a primeira nota dessa escala é um LÁ(quinta casa da sexta corda), se você "puxar" essa escala um pouco mais para trás até a primeira casa. a primeira nota será um Fá e ela será a penta de Fá menor:



e-------------14--41---------------------------------------
B-----------14------41-------------------------------------
G---------13----------31-----------------------------------
D-------13--------------31---------------------------------
A-----13------------------31-------------------------------
E---14----------------------41-----------------------------


Enviar sua resposta para este assunto
        Tablatura   
 

Tópicos relacionados a Escalas desenhadas, me passem por favor

290.152 tópicos 7.569.161 posts
Fórum Cifra Club © 2001-2014 Studio Sol Comunicação Digital