Notificações Amigos pendentes

      Fórum Cifra Club - maior fórum de m&uacite;sica do Brasil

      Hexafônicas... postem dicam, musicas etc etc etc

      Autor Mensagem
      Adriano Medeiros
      Veterano
      # jun/05


      ae pessoal...
      to lançando ai mais uma discussao, agora sobre a escala Hexafônica, aquela escala de 6 tons, formada por intervalos de tons inteiros (T 2 3 4# 5# 6# ou 7b)

      ela pode ser aplicada em cima de acordes do genero dominantes com tensões caracteristicas da simetria da escala ( X7 - 9,#5,#11 )

      mas como eu sou chato... escalas pra mim nao sao nada sem um contexto harmonico... agora pergunto pra vcs, dá pra se fazer um campo harmonico baseado nessa escala? quais musicas se tem um uso acentuado dessa escala/harmonia?

      me ajudem, obrigado

      Adriano Medeiros
      Veterano
      # jun/05
      · votar


      po... ninguem???

      LeandroP
      Moderador
      # jun/05
      · votar


      Adriano Medeiros

      A dica que eu posso dar é que só exitem basicamente duas escalas hexafônicas. Uma de Dó e outra de Dó#

      C - D - E - F# - G# - A#

      C# - D# - F - G - A - B

      Como sabemos, podemos inverter essas duas escalas e criar outros modos, mas serão sempre simétricos.

      Tocar uma hexafônica em uma base C7(9) e F7(9) é só subir meio-tom do desenho da escala, tomando cuidado pra não criar armadilhas e ter uma boa resolução.

      Tensões:

      T - 9 - 3 - #4 - #5 - 7

      ou

      T - 9 - 3 - b5 - b13 - 7

      JaCaMaN
      Veterano
      # jun/05
      · votar


      num tenho certeza
      mas os acordes q essa escala saum saum todos X7/#5

      saum todos dominantes com a quinta aumentada

      ou seja escala C hexafonica:

      C7/#5 depois D7/#5 e assim por diante, de um em um tom


      como jah disseram a escala é simétrica

      LeandroP
      Moderador
      # jun/05
      · votar


      JaCaMaN

      Mas na formação do acorde dominante não tem que necessariamente ter uma 5a na formação. Pode ser apenas T, 3 e 7


      e------------------------------------------------------
      B--------------1-----0---------------------------------
      G----3---------3-----0---------------------------------
      D----2----3----2-----3---------------------------------
      A----3----2--------------------------------------------
      E---------3--------------------------------------------

      tríades de C7 e G7


      ricardo metallica
      Veterano
      # jun/05
      · votar


      a tipo tbm tem a mais dois tipo - akela q eh T - S - T - S ..... e aquela q eh S - T - S - T - S.... , alem dessa ae q eh so tom inteiro, q vc usa naqueles acordes maiores com setima menor (com a quinta omitida)- - tambem de pra por a nona q ta dentro tbm. como no exemplo em C



      e------------------------------------------------------
      B----3--------------------------------------------------
      G----3--------------------------------------------------
      D----2--------------------------------------------------
      A----3--------------------------------------------------
      E------------------------------------------------------


      spainEL
      Veterano
      # jun/05
      · votar


      Eu tenho uns exercícios legais de fazer na tons inteiros, da pra fazer bem rapido... dps eu digito pra você, agora eu to meio ocupado =]

      LeandroP
      Moderador
      # jun/05
      · votar



      e------------------------------------------------------
      B-----4--------------4---------------------------------
      G-----4----------2-4---4~~~~---------------------------
      D-----3--------3---------------------------------------
      A----------2-4-----------------------------------------
      E-----3------------------------------------------------

      G7(b13) hexafônica partindo da 3a e resolvendo na 3a


      LeandroP
      Moderador
      # jun/05
      · votar


      eu uso esta frase num som meu.

      Adriano Medeiros
      Veterano
      # jun/05
      · votar


      LeandroPanucci
      valeu... entao eu nao posso tocar ela, por motivos de plagio hehe

      Macalpine
      Veterano
      # jun/05
      · votar


      Adriano Medeiros
      E ae cara! Tem uma musica que usa a Hexafônica: DREAM THEATER - OVERTURE 1928, mas especificamente o riff executado em 1:02 minutos. Abraço

      joe pass JR
      Membro Novato
      # 06/fev/18 21:32
      · votar


      nao sabia da possibilidade de aplicaçao sobre acordes m7
      https://www.youtube.com/watch?v=R85As1ybYdo

      alguem traduz pra mim quero saber apenas aonde eu aplico ela

      Enviar sua resposta para este assunto
              Tablatura   
      Responder tópico na versão original
       

      Tópicos relacionados a Hexafônicas... postem dicam, musicas etc etc etc

      305.761 tópicos 7.895.641 posts
      Fórum Cifra Club © 2001-2018 Studio Sol Comunicação Digital