Fórum Cifra Club - maior fórum de m&uacite;sica do Brasil

Técnicas de Guitarra + Solo

Autor Mensagem
eduloq
Veterano
# nov/03


Ai galera estou procurando alguns materiais com técnicas de solos e até mesmo escalas, algum material bacana e preciso, to afim de aperfeiçoar e nao tenho tempo de ficar indo em aulas....quem tiver um dica valew [ ]'s

nonoya
Veterano
# nov/03
· votar


tipo trina assim o para catar velocidade enche o saco mais muita gente ou quase todos começaram assim essa digitaçao é a inicial:

e--1-2-3-4-------------------------------------------------
B----------1-2-3-4-----------------------------------------
G------------------1-2-3-4---------------------------------
D--------------------------1-2-3-4-------------------------
A----------------------------------1-2-3-4-----------------
E------------------------------------------1-2-3-4---------


e----------------------------------------4-3-2-1-----------
B--------------------------------4-3-2-1-------------------
G------------------------4-3-2-1---------------------------
D----------------4-3-2-1-----------------------------------
A--------4-3-2-1-------------------------------------------
E4-3-2-1---------------------------------------------------


outras digitaçoes:1423,1324 e se vira inventa digitaçao vou te passar uma pentatonicas:C,Am


e-5-8----------------------------------------------------
B-----5-7------------------------------------------------
G---------5-7--------------------------------------------
D-------------5-7----------------------------------------
A-----------------5-8------------------------------------
E---------------------5-8--------------------------------

acho que eu me lembro é assim treina ai veio!!!!

GuitarHouse
Moderador
# nov/03
· votar


nonoya
treinar apenas esses patterns nao dao resultado muito bom. O ideal eh pegar exercicios mais fraseados, pois vc pode ficar fera no 1234 mas qnd for jogar frases mudando de corda a cada 2 notas por exemplo, se perde todo

vandaime
Veterano
# nov/03
· votar


tenta tira uma do Malmsteen q tua digitacao fica muito boa!

crowley666
Veterano
# nov/03
· votar


tira devagar e depois vai acelerando (sempre com o metronomo)

eu não aguento mais ouvir isso mas eh verdade

Daredevil
Veterano
# nov/03
· votar


ae kra , se quiser alguns exercícios maneiros , tem um tópico aki , eh o segundo lah em cima , cheio de exercico massa

naka
Veterano
# nov/03
· votar


pra fica rapido acho q o rola é treina escala 3 notas por corda subindo e descendo , fasendo paterns

juninho riff
Veterano
# jun/05
· votar


galera vcs querem ficar rapidos esse execicio e muito bom:

e..1 2 3 4..........1 2 3 4 ...........1 2 3 4.........1 2 3 4......1 2 3 4
a............1 2 3 4..................................................................
d.................................1 2 3 4 ............................................
g.......................................................1 2 3 4 .......................
b..................................................................... ..1 2 3 4
e..................................................................... .............1 2 3 4.
galera comece devagar e aumenten a velocidade graduaomente.
outro exercicio e so fazer o seguinte
comece com a digitação comum 1 2 3 4 e depois vc faz o seguinte vc vai digitar 1 2 3 4 so que com um espasso vc digita 1 e pula uma casa e depois coloca o 2 dedo na terceira casa e depois o 3 dedo e 4 dedo
depois digita 1 2 e deixa um espaco entre o 2 e o 3 dedo e depoi como quatro a nao esqueca de deixar os dedo na hora da digitacao isso e que ira lhe dar velocidade! galera fui meu email e juninhoguitarristalider@hotmail.com fui e autos riffs e levadas!!hahha

juninho riff
Veterano
# jun/05
· votar


entao galerae so iso uma outra dica EU+DIFICULDADE DE MUSICA=TREINO+TREINO+TREINO.....

juninho riff
Veterano
# jun/05
· votar


TIRE PELOMENOS 4 HORAS PARA TREINAR E MALHAR MESMO SEJO UM GRANDE MUITO VENCA SEUS LIMITES

Guimariz
Veterano
# 29/out/12 00:22
· votar


Postando para futuras consultas !

Enviar sua resposta para este assunto
        Tablatura   
 

Tópicos relacionados a Técnicas de Guitarra + Solo

289.124 tópicos 7.544.747 posts
Fórum Cifra Club © 2001-2014 Studio Sol Comunicação Digital