Fórum Cifra Club - maior fórum de m&uacite;sica do Brasil

Desenho de escalas maiores, digitação!

Autor Mensagem
Fahrenheit
Veterano
# ago/07


Como vocês preferem fazer?
Com 3 notas por corda ou com variações, algumas com 2 notas por corda e outras com 3?
Meu professor me disse hoje que a digitação com tres notas por corda é mais favorável enquanto a técnica...mas não entendi direito...
E vocês, como fazem e o que acham disso?

Fahrenheit
Veterano
# ago/07 · Editado por: Fahrenheit
· votar




Ta ai um vídeo do meu professor
Bruno Albuquerque...

Comentem ai também...o vídeo não mostra grande coisa mas da pra ter uma noção!!!

Fahrenheit
Veterano
# ago/07
· votar


Qualé galera...comenta ai...uheauheuheaueahuhaeu

cosmolense
Veterano
# ago/07 · Editado por: cosmolense
· votar


Fahrenheit

algumas com 2 notas por corda e outras com 3

Eu faço assim

Fahrenheit
Veterano
# ago/07
· votar


up

Eric Lance Abbott
Veterano
# ago/07
· votar


eu sei fazer digitação na escala qwertyuiop, na asdfghjklç e na zxcvbnm

Fahrenheit
Veterano
# ago/07
· votar


eu sei fazer digitação na escala qwertyuiop, na asdfghjklç e na zxcvbnm

hummm...legal

Noviço
Veterano
# ago/07
· votar


humm...legal kra...teu professor toca muito!!!!

Fahrenheit
Veterano
# ago/07
· votar


Noviço

Vlw man...tem um mês que to fazendo aula com ele...e já sacava um pouco de guitarra...mas agora to evoluindo bastante!!!

rsp_guitar
Veterano
# ago/07
· votar


As escalas de 3 notas por corda facilidam pra fazer padrões e subir ou descer rápido a escala por que o movimento da palhetada é sempre repetitivo. Por exemplo. preste atenção na palhetada:

LÁ DÓRICO (CAMPO DE SOL MAIOR)


e------------------------------------------------------
B------------------------------------------------------
G------------------------------------------------------
D---------------4-5-7---------------5-7-9--------------
A-----------5-7---------------5-7-9--------------------
E-----5-7-8-------------5-7-8--------------------------


^ V ^ v ^ V ^ V ^ V ^ v ^ V ^ V ^

Note que na escala d 3 notas, as mudanças de cordas serão sempre feitas com uma palhetada para cima, e na próxima uma para baixo.

Numa sequencia de 4 notas, a primeira palheta do conjunto de 4 notas será sempre para baixo ou sempre para cima, dependendo do jeito que vc começar.

FÁ JÔNIO

e------------------------------------------------------
B------------------------------------------------------
G------------------------------------------------------
D------------------------------------------------------
A-----------1-----1-3---1-3-5--------------------------
E-----1-3-5---3-5-----5-------------------------------

1º^ v ^ v ^ v ^ v ^ v ^ v
2º^ v ^ v ^ v ^ v ^ v ^ v

É esse tipo de relção que tornam mais fácil a execução das escalas de 3 notas por corda e padrões que as utilizam.

O movimento se repetirá numa constante que facilidade a execução.

Porém, é preciso também estudar as escalas que usam 2 e 3 notas por corda. É preciso ententer as diferentes formas de se fazer a mesma coisa pra que no futuro vc esteja apto, tanto para reproduzir fielmente as idéias de outros guitarristas, como para escolher a forma mais confortável de fazer seus próprios solos e improvisos.

Espero ter ajudado.

rsp_guitar
Veterano
# ago/07
· votar


Retificando:
desculpe, na segunda parte eu quis mostrar que a palhetada de repete também de forma inversa.

FÁ JÔNIO

e------------------------------------------------------
B------------------------------------------------------
G------------------------------------------------------
D------------------------------------------------------
A-----------1-----1-3---1-3-5--------------------------
E-----1-3-5---3-5-----5-------------------------------


1º ^ v ^ v ^ v ^ v ^ v ^ v
2º v ^ v ^ v ^ v ^ v ^ v ^

Foi mal.

Fahrenheit
Veterano
# ago/07 · Editado por: Fahrenheit
· votar


Cara vlw pelas explicações...agora entendi melhor!!!
Muito bem explicado, vlw man!!!!!
Abç

Vinicius Nogueira
Veterano
# ago/07
· votar


legal o fraseado do seu professor, belo timbre tbm, que ekipo ele usou ?

Fahrenheit
Veterano
# set/07
· votar


Vinicius Nogueira

Cara não sei bem...
Mas acho que é quele amp Line 6, e a guitrra Line 6 também...ele paga mó pau pra esse equipamento...

Enviar sua resposta para este assunto
        Tablatura   
 

Tópicos relacionados a Desenho de escalas maiores, digitação!

289.127 tópicos 7.544.798 posts
Fórum Cifra Club © 2001-2014 Studio Sol Comunicação Digital