Fórum Cifra Club - maior fórum de m&uacite;sica do Brasil

Desenho das Escalas Pentatonicas

Autor Mensagem
Gustavo Salvador
Veterano
# jan/06


Galera, eu tava querendo os desenhos de todas as pentatonicas menores e maiores...
Eu só tenho essa menor de A

-> Primeiro desenho Penta Menor de A
e--------------------------2-5-
B---------------------2-5------
G----------------2-4-----------
D-----------2-4----------------
A------2-4---------------------
E-2-5--------------------------

-> Segundo desenho Penta Menor de A
e------------------------------8-10-
B------------------------8-10-------
G-------------------7-9-------------
D-------------7-10------------------
A-------7-10------------------------
E-8-10------------------------------

-> Terceiro desenho Penta Menor de A
e-----------------------------------10-12-
B----------------------------10-13--------
G----------------------9-12---------------
D---------------10-12---------------------
A--------10-12----------------------------
E-10-12-----------------------------------

-> Quarto desenho Penta Menor de A
e------------------------------------12-15-
B-----------------------------13-15--------
G----------------------12-14---------------
D---------------12-14----------------------
A--------12-15-----------------------------
E-12-15------------------------------------

-> Quinto desenho Penta Menor de A
e------------------------------------15-17-
B-----------------------------15-17--------
G----------------------14-17---------------
D---------------14-17----------------------
A--------15-17-----------------------------
E-15-17------------------------------------


Rifferman
Veterano
# jan/06
· votar


eu tenho tds os desenhos de escalas e arpeggios, só q é em inglês...

Gustavo Salvador
Veterano
# jan/06
· votar


demorou pra mandar...

=)

Sgt_ Pimenta
Veterano
# jan/06
· votar


Rifferman

ué?

pra mim essa linguagem d tablatura era universal...

Sgt_ Pimenta
Veterano
# jan/06 · Editado por: Sgt_ Pimenta
· votar


Gustavo Salvador

e a penta d Am ou C eh assim:

<pre>
e-------------------------------5-8----------------------
B--------------------------5-8---------------------------
G---------------------5-7--------------------------------
D----------------5-7-------------------------------------
A-----------5-7------------------------------------------
E------5-8-----------------------------------------------
</pre>

Ratman
Veterano
# jan/06
· votar


Gustavo Salvador

Vc msm poderia criar essas escalas pentatônicas, exemplo das escalas maiores:

Pegue os intervalos da escala maior natural e retire os graus IV e VII da mesma (modo Jônio), veja abaixo:

Intervalos: T 2 3 4 5 6 7+
Escala C: C-D-E-F-G-A-B
Penta C: C-D-E- -G-A- --> As notas F e B são os graus IV e VII.
Escala D: D E F#G A B C#
Penta D: D E F# A B --> As notas G e C# são os graus IV e VII.
Escala E: E-F#-G#-A-B-C#-D#
Penta E: E-F#-G#- -B-C#-

Dessa forma, vc sabendo quais são as notas da Pentatônica, vc mesmo poderá criar os desenhos da própria escala:


Obs: Caso eu esteja errado alguém, por favor, me corrija!

pouca idade
Veterano
# jan/06
· votar


Rifferman

e existe o arpeggio ingles e o portugues??

gustavo_m
Veterano
# jan/06
· votar


pouca idade
guitar pro...

tem todas as escala..

nao sei porq vcs perdem tempo em escreve aki.. c tem de gratis la XD

leo michilotti
Veterano
# mai/12
· votar


Galera vou reviver pra tirar uma dúvida besta de inciante....falta só eu entender esta parte pra ligar os pontos.

tenho uma apostila do cifra club com os 5 shapes da penta blues.....o que eu não entendi é prq 5 desenhos?

Exemplo: se eu pegar o desenho 1 ali de cima e colocar a tônica na casa 7 será Si certo? então eu posso percorrer o braço todo escolhendo a tônica e esse shape vai funcionar?

Ou não, os shapes são exatamente para o propósito de que cada Lá do braço a escala deve se adaptar para atender o formato T 3m 4J 5J 7m 8 ?

ThiagoBarbosa
Veterano
# mai/12
· votar


leo michilotti

Os shapes não precisam necessariamente ser entendidos como coisas separadas. Você pode pensar que todas aquelas notas ali fazem parte da penta menor de A. Mas o amigo dividiu em 5 shapes, pois assim fica mais fácil de estudar. O importante é você praticar bastante e aprender como funciona a sonoridade dessas escalas, ver as boas notas de repouso, enfim, destrinchá-las. Tem bastante material pra te ajudar aqui no fórum e na internet toda. Com o tempo e a prática você aprende a utilizar todas as 5 escalas "de uma vez", hehe, sacando como funciona a passagem entre uma e outra...

Sobre a mudança da tônica, é isso aí mesmo.

Denis Guitar
Veterano
# mai/12
· votar


Gustavo Salvador
Olá.

Dê uma olhada no meu site, lá tem uma Biblioteca com vários shapes das principais escalas.

http://www.deniswarren.com/?page_id=422

Abraço!

Danielnaka
Veterano
# mai/12 · Editado por: Danielnaka
· votar


Assunto interessante sobre aplicação da penta m7, no II - V - I.

http://www.danielnakamura.com.br/blog/post/2012/05/23/Pentatonica-Alte rada!.aspx

Danielnaka
Veterano
# mai/12
· votar


Assunto interessante sobre aplicação da penta m7, no II - V - I.

http://www.danielnakamura.com.br/blog/post/2012/05/23/Pentatonica-Alte rada!.aspx

leo michilotti
Veterano
# mai/12 · Editado por: leo michilotti
· votar


ThiagoBarbosa

Vlw entendi é a mesma escala adaptada em uma área diferente que vai soar diferente.

Não querendo abusar, mas, o certo é solar do seguinte jeito?

Saber o tom da musica, suponhamos que seja A então eu viajo entre esses desenhos ali de cima sempre me preocupando em descansar na nota do acorde que esta tocando. certo?

Enviar sua resposta para este assunto
        Tablatura   
 

Tópicos relacionados a Desenho das Escalas Pentatonicas

290.152 tópicos 7.569.157 posts
Fórum Cifra Club © 2001-2014 Studio Sol Comunicação Digital