Fórum Cifra Club - maior fórum de m&uacite;sica do Brasil

Desenhos de escalas pentatonicas!

Autor Mensagem
gnomo
Veterano
# set/03


Ae pessoal, esta é uma duvida da galera que ta afim de mandar um improviso ou então que quer aprender as famosas pentatonicas...procurei na busca e ta mal resolvido pacas esse assunto.
Postem ai desenhos de pentatonicas, na boa vai...
flw...

Dave Murray
Veterano
# set/03 · Editado por: Dave Murray
· votar


AGUARDANDO INFO DO GuitarHouse

Dave Murray
Veterano
# set/03 · Editado por: Dave Murray
· votar


AGUARDANDO INFO DO GuitarHouse

GuitarHouse
Moderador
# set/03
· votar


nossa, pentatonica tem uns 5 padroes diferentes pra cada nota, variando de corda, etc.
vou v se acho todos aki bonitinhos e escaneio dum livro q eu tenho. Pq digitar td eh osso..heheh

gnomo
Veterano
# set/03
· votar


todos na expectativa...

Dave Murray
Veterano
# set/03
· votar


auheuaheuheauheauaehu....

GuitarHouse
Moderador
# set/03
· votar


gnomo
Dave Murray
Cs tao esperando pra HJ?????????
pode demorar..sou preguicoso..o scaner nem ta aki.
heheheh

tipo assim..uma dica. Eskecam as regras. Peguem a pentatonica. tentem variar semitons nela ai. Formara outras escalas, ok. mas nem pense nisso. Firmem o desenho dela e tentem aicionar coisas enuqnato tocam. Isso pode ajudar muito a variar a cabeca e melhorar o desenvolvimento.

Dave Murray
Veterano
# set/03
· votar


eu nem pensei q vc fosse por hj...afinal sao quase 0:00...

GuitarHouse
Moderador
# set/03
· votar


vou v se esse ano ainda eu posto....

hehe..zuera..essa semana.

gnomo
Veterano
# set/03
· votar


GuitarHouse
c ta zuando véio
hehehee

gnomo
Veterano
# set/03
· votar


pq editaram o topico?

edhunterbr
Veterano
# set/03
· votar


Tenho uma enorme curiosidade sobre esses desenhos, nunk tive paciência pra procurar... Se puderem postar, agradeço!

Squiter
Veterano
# set/03
· votar



e-------------------------------3--5-------------------
B-------------------------3--5-------------------------
G-------------------2--4-------------------------------
D-------------2--5-------------------------------------
A-------2--5-------------------------------------------
E-3--5-------------------------------------------------



e---------------------------------5--7-----------------
B---------------------------5--8-----------------------
G---------------------4--7-----------------------------
D---------------5--7-----------------------------------
A---------5--7-----------------------------------------
E---5--7-----------------------------------------------



e-----------------------------------7--10--------------
B----------------------------8--10---------------------
G----------------------7--9----------------------------
D-----------------7--9---------------------------------
A-----------7--10--------------------------------------
E----7--10---------------------------------------------


e-----------------------------------------10--12-----------
B---------------------------------10--12-------------------
G--------------------------9--12---------------------------
D-------------------9--12----------------------------------
A------------10-12-----------------------------------------
E----10--12------------------------------------------------


e-------------------------------------------12--15---------
B-----------------------------------12--15-----------------
G---------------------------12--14-------------------------
D-------------------12--14---------------------------------
A-----------12--14-----------------------------------------
E---12--15-------------------------------------------------


Eu acho que é isso que vc quer né???
Gostaria que alguem ue manja desse uma olhadinha pra ver se esta tudo sertinho.
Esta é a PentaM de G!

GuitarHouse
Moderador
# set/03
· votar


gnomo
serio, vo v se escaneio aki

renatocaster
Moderador
# set/03
· votar


Penta m7 Tom: A
Shape I

e----------------5---8-----------------------------------
B----------------5---8-----------------------------------
G----------------5---7-----------------------------------
D----------------5---7-----------------------------------
A----------------5---7-----------------------------------
E----------------5---8-----------------------------------
Shape II

e----------------8---10-----------------------------------
B----------------7---9-----------------------------------
G----------------7---9-----------------------------------
D----------------7---10-----------------------------------
A----------------7---10-----------------------------------
E----------------8---10-----------------------------------
Shape III

e---------------10---12------------------------------------
B---------------10---13------------------------------------
G----------------9---12-----------------------------------
D---------------10---12------------------------------------
A---------------10---12------------------------------------
E---------------10---12------------------------------------
Shape IV

e---------------12---15------------------------------------
B---------------13---15------------------------------------
G---------------12---14------------------------------------
D---------------12---14------------------------------------
A---------------12---15------------------------------------
E---------------12---15------------------------------------
Shape V

e---------------15---17------------------------------------
B---------------15---17------------------------------------
G---------------14---17------------------------------------
D---------------14---17------------------------------------
A---------------15---17------------------------------------
E---------------15---17------------------------------------
Divirta-se!!!

gnomo
Veterano
# set/03
· votar


GuitarHouse
ta blz cara mas não esquece do tópico, flw...
renatocaster
Squiter
valeu pelos desenhos ai...

niredsystalironledfloyd
Veterano
# set/03
· votar


como e a pentatonica de am?

John Andrade
Veterano
# set/03
· votar


penta de Am basicona

e---------------------5-8-----------------------5-8------
B-----------------5-8-----------------------5-8----------
G-------------5-7-----------------------5-7-8-------------
D---------5-7-----------------------5-7------------------
A-----5-7---------------------5-6-7----------------------
E-5-8---------------------5-8--------------------------


O segundo é com blue note

niredsystalironledfloyd
Veterano
# set/03
· votar


John Andrade
e aquela q o page usa no inicio do solo de stairway? e uma pentatonica de am avançada é?

John Andrade
Veterano
# set/03
· votar


Não sei.. vou estudar o solo dela... não cheguei a tirar... mas pode deixar que eu posto depois pra vc... manda teu email ae.

niredsystalironledfloyd
Veterano
# set/03
· votar


eu ate sei como é! so queria saber se era pentatonica de am! pois vc colocou aquela de cim q e parecisa! ai queria saber tipo pq a do page e pentatonica tb!q imagino q seja pent de am num estagio mais avançado( se e q tem isso) saco muito pouco de teoria!

meu e-mail e faustohendrix@hotmail.com.br( HENDRIX q PRETENÇÃO! hehehehehehehehehe! )

GuitarHouse
Moderador
# set/03
· votar


niredsystalironledfloyd
nao existe essa de penta avancada nao. Penta eh penta e pronto. 5 notas. Mas ha varios jeitos de fazer

Em stairway.
o inicio eh penta de am sim, mas a ultima nota eh um F, pq a base termina em F, entao pra nao soar dissonante termina em F e nao em E, como seria na penta.

e---------------------5-8----
B-----------------5-8----------
G-------------5-7------------
D---------5-7--------------
A-----5-7------------------
E-5-8---------------------

a ultima nota ele usa casa 8 na A (ou 3 na D, como quiser)


Depois ele faz a penta denovo mas usa essa variacao da penta de Am
(usa notas das 3 primeiras cordas citadas no padrao da penta abaixo)

e------------------------------8-10-
B------------------------8-10-------
G-------------------7-9-------------
D-------------7-10------------------
A-------7-10------------------------
E-8-10------------------------------




Trecho do solo:


e------5------------------------------------------------
B--------8-5---------------------------------------------
G-7b9--------7-5---7-5-------------------------------
D----------------7-----7-5--------------------------------
A---------------------------8---------------------------
E------------------------------------------------------
F



e------8-8-10-8---------8h10p8-------------------
B--8/10---------10-8-10--------10-8--8-10----------
G-----------------------------------9----------
D-------------------------------------------------
A------------------------------------------------------
E------------------------------------------------------



pus soh o inicio mesmo pra sacar

GuitarHouse
Moderador
# set/03
· votar


correcao:

e------8-8-10-8---------8-8h10p8-------------------
B--8/10---------10-8-10--------10-8--8-10----------
G-----------------------------------9----------
D-------------------------------------------------
A------------------------------------------------------
E------------------------------------------------------



nessa frase eu faço diferente, com bend, etc (acho q a original eh com bend tb) e em outro lugar do braço, mas eh soh pra entender.

John Andrade
Veterano
# set/03
· votar


niredsystalironledfloyd, guitarhouse postou tudo ae...

niredsystalironledfloyd
Veterano
# out/03
· votar


GuitarHouse
John Andrade
Vlw pessoal! eu ja ate sabia fazer! mas nem sabia o q era o q eu fazia heheheh! paguei o solo no my songbook.com e ouvi a musica e aporendi! caralho eu adoro tocar essa musica!!!

7543
Veterano
# mai/04
· votar


vou v se esse ano ainda eu posto....
ehauHEUAheua
tem nego esperando ateh hj
heuaheuahue

todescoguitar
Veterano
# mai/04
· votar


huahahahahah

Centauro
Veterano
# set/04
· votar


renatocaster
Na linha do si B no shape dois o correto é 8--10 e não 7--9[i][/i]

niredsystalaringologista
Veterano
# set/04
· votar


po eu fico so andando por esses shaps. to mo sem criatividade. solos todos repetitivos. ehhehahe.

Freedon
Veterano
# mar/05
· votar


vou v se esse ano ainda eu posto....
ehauHEUAheua
tem nego esperando ateh hj
heuaheuahue


tem memu
kkkkkkkkkkkkkkkkkk

Enviar sua resposta para este assunto
        Tablatura   
 

Tópicos relacionados a Desenhos de escalas pentatonicas!

290.208 tópicos 7.570.685 posts
Fórum Cifra Club © 2001-2014 Studio Sol Comunicação Digital