Fórum Cifra Club - maior fórum de m&uacite;sica do Brasil

desenho da pentatonica de C

Autor Mensagem
Shelo
Veterano
# fev/04


alguem ai tem o desenho da pentatonica de C ????

nothing else matters
Veterano
# fev/04
· votar


vah no guitarra e procure exercicios lah(na exclamacaum) lah tem

nothing else matters
Veterano
# fev/04
· votar


vah no guitarra e procure exercicios lah(na exclamacaum) lah tem

DC Master
Veterano
# fev/04
· votar


Shelo

Estou colocando esse artigo no Bass Point mas:

Escalas Pentatônicas:

As escalas pentatônicas são formadas por cinco notas. Há dois modos mais utilizados: um que suprime o 2º grau e o 6º grau da escala (lá – dó – ré – mi – sol) que corresponde ao modo menor; e outro que suprime o 4º grau e o 7º grau da escala (lá – si – dó# - mi – fá#) que corresponde ao modo maior. Existem ainda outras formas de escalas pentatônicas que serão vistas em outros estudos.


Pentatônica de dó:

dó - ré# - fá - sol - lá# - dó (s) (menor)

dó – ré – mi – sol – lá – dó (maior)

dó - mi - fá - sol - lá# -dó (maior com 7)


Pentatônica de ré:

ré - fá - sol - lá - dó - ré (menor)

ré – mi – fá# - lá – si – ré ( maior)

ré - fá# - sol - lá - dó - ré (maior com 7)


Pentatônica de mi:

mi - sol - lá - si - ré - mi (menor)

mi – fá# - sol# - si – dó# - mi (maior)

mi - sol# - lá - si - ré - mi (maior com 7)


Pentatônica de fá:

fá - sol# - lá# - dó - ré# - fá (menor)

fá – sol – lá – dó – ré – fá (maior)

fá - lá - lá# - dó - ré# - fá (maior com 7)


Pentatônica de sol:

sol - lá# - dó - ré - fá - sol (menor)

sol – lá – si – ré – mi – sol (maior)

sol - si - dó - ré -fá - sol (maior)


Pentatônica de lá:

lá - dó - ré - mi - sol - lá (menor)

lá – si – dó# - mi – fá# - lá (maior)

lá - dó# - ré - mi - sol - lá (maior)


Pentatônica de si:

si - ré - mi - fá# - lá - si (menor)

si - ré# -mi - fá# - lá - si (maior)


Pentatônica de fá#:

fá# - lá - si - dó# - mi - fá# - lá (menor)

fá# - lá# - si - dó# - mi - fá# (maior)


Pentatônica de dó#:

dó# - mi - fá# - sol# - si - dó# (menor)

dó# - fá - fá# - sol# - si - dó# (maior)



Pentatônica de ré#:

ré# - fá# - sol# - lá# - dó# - ré# (menor)

ré# - sol - sol# - lá# - dó# - ré# (maior)


Pentatônica de sol#:

sol# - si - dó# - ré# - fá# - sol# (menor)

sol# - dó - dó# - ré# - fá# - sol# (maior)


Pentatônica de lá#:

lá# - dó# - ré# - fá - sol# - lá# (menor)

lá# - ré - ré# - fá - sol# - lá# (maior)

Shelo
Veterano
# fev/04
· votar


eeu tenhu um desenho aki de pentatonica de C tah certo??


G-------------2-5----------------------------------------
D---------2-5--------------------------------------------
A-----3-5------------------------------------------------
E-3-5----------------------------------------------------


G-------------5-7----------------------------------------
D---------5-7--------------------------------------------
A-----5-7------------------------------------------------
E-5-8----------------------------------------------------



G-------------7-9-----------------------------------------
D---------7-10--------------------------------------------
A-----7-10------------------------------------------------
E-8-10----------------------------------------------------


G-------------9-12----------------------------------------
D---------10-12--------------------------------------------
A-----10-12------------------------------------------------
E-10-12----------------------------------------------------


G-------------12-14----------------------------------------
D---------12-14--------------------------------------------
A-----12-15------------------------------------------------
E-12-15----------------------------------------------------

DC Master
Veterano
# fev/04
· votar


Shelo
Basta vc mesmo conferir de acordo c/ o que eu disse acima...

dó(C) – ré(D) – mi(E) – sol(G) – lá(A) – dó(C) (maior)

Quando vc escreve:


G-------------2-5----------------------------------------
D---------2-5--------------------------------------------
A-----3-5------------------------------------------------
E-3-5----------------------------------------------------

Na verdade vc está descrevendo as notas em uma determinada oitava (ou qual traste vc deve pressionar para obter determinada nota), ou seja:


G-------------A-C----------------------------------------
D---------E-G--------------------------------------------
A-----C-D------------------------------------------------
E-G-A----------------------------------------------------

Faça a transcrição das demais vc mesmo e comprove...
Se tiver dúvidas, dê uma olhada na primeira parte do curso de partituras que eu estou disponibilizando no Bass Point.

http://www26.brinkster.com/basspoint

Shelo
Veterano
# fev/04
· votar


ah soh!!
entendi!!
valeu ae cara...!!!

Shelo
Veterano
# mar/04
· votar


Entaum o 2º ficaria assim:??

G-------------C-E----------------------------------------
D---------G-A--------------------------------------------
A-----D-E------------------------------------------------
E-A-C----------------------------------------------------

DC Master
Veterano
# mar/04
· votar


Shelo

2º Am(lá menor) ou sua relativa maior o C(dó maior).

G-------------C-D----------------------------------------
D---------G-A--------------------------------------------
A-----D-E------------------------------------------------
E-A-C----------------------------------------------------

Enviar sua resposta para este assunto
        Tablatura   
 

Tópicos relacionados a desenho da pentatonica de C

286.551 tópicos 7.484.416 posts
Fórum Cifra Club © 2001-2014 Studio Sol Comunicação Digital