..........Funk..........

    Autor Mensagem
    ___LC___
    Veterano
    # nov/03


    E ai galera.....
    bom, eu gostaria de saber como
    se toca o Funk (escalas,efeitos,etc...),
    quem toca (bandas,guitarristas),e onde
    encontro materiais (licks,riffs.mp3).

    Valew....

    Melodic Man
    Veterano
    # nov/03
    · votar


    James Brown.... O Ultramen faz um Groove/Samba rock parecido tb

    Vic Wolk
    Veterano
    # nov/03
    · votar


    Uma banda boa, na minha opiniao, eh Tower of Power.

    Pega a musica "funk the dumb stuff" q eh mt foda.

    Qnto a tocar, eh td swing e ritimo + wah wah :P

    Naum tem mt misterio, eh assim:

    e-7^---7^-7|-------------------------------------------
    B-7|---7|-7|-------------------------------------------
    G-4|---4|-4v-------------------------------------------
    D------------------------------------------------------
    A------------------------------------------------------
    E------------------------------------------------------

    duas de cima pra baixo, a primeira c deixa soar um pouquinho e a segunda eh rapida jah com uma pegada de baixo pra cima.

    Isso eh o basico do swing do funk.

    bocao
    Veterano
    # nov/03
    · votar


    Grand Funk. Bandaça!!!!

    HaKaN
    Veterano
    # nov/03
    · votar


    OUÇA MUITO MARCOS MILLER CARA!!!!!!!! SELSO PIXINGA!!!!!
    OS BAIXISTAS CUSTUMAM MANDAR MUITO FUNK,TEM GUITARRAS MANEIRAS NESSAS MÚSICAS!

    HaKaN
    Veterano
    # nov/03
    · votar


    veja isso:

    C#m7(5b)
    e-------------3-------5-4-3----------------------------
    B-------3-4-5---5-4-3-------5-4-3----------------------
    G-2-3-4---------------------------4-2------------------
    D------------------------------------------------------
    A------------------------------------------------------
    E------------------------------------------------------

    depois suba 1 tom e faça mesma coisa. acho que dá uma noção boa d funk! ponha swing e realce os tempos fortes do lick!!!

    HaKaN
    Veterano
    # nov/03
    · votar


         F#7/9
    
    e------------------------------------------------------
    B------------------------------------------------------
    G------------------------------------------------------
    D------------------------------------------------------
    A----------0-2-3-0-2-3-0-4-----------------------------
    E-0-2-3-4----------------------------------------------


    HaKaN
    Veterano
    # nov/03
    · votar


    essa eh do pixinga!
    up!

    Vic Wolk
    Veterano
    # nov/03
    · votar


    O bom sempre eh ligar a guitarra com a batida da caixa. Mas pra isso tem q ter a ajuda do baixo tb ;P

    crowley666
    Veterano
    # nov/03
    · votar


    Ouve Bedroom Eyes do Malmsteen

    ___LC___
    Veterano
    # abr/04
    · votar


    No começo de sua carreira os sons
    que Michael Jackson fazia tambem eram
    considerados funk....???

    LeandroP
    Moderador
    # abr/04
    · votar


    Ora bolas, não me amole
    Com esse papo de emprego
    porque eu quero
    Sussego!

    Este som do Tim Maia dá pra rolar um funk legal em Cm7, F7(9)

    ___LC___
    Veterano
    # abr/04
    · votar


    LeandroPanucci

    heheheheheh.....Pode crer

    yvo
    Veterano
    # abr/04
    · votar


    Po eu sabia uma musiquinha Funk com o tema tocado na guitarra que era manerassa.. soh me lembro agora que o tom era Em7

    stratopeido
    Veterano
    # abr/04 · Editado por: stratopeido
    · votar


    ___LC___

    funk + rock + bateria mais doida q ja vi= Grand Funk Railroard

    Jean
    Veterano
    # abr/04
    · votar


    Quem toca funk é o John Frusciante(guitarrista do rhcp)

      Enviar sua resposta para este assunto
              Tablatura   
      Responder tópico na versão original
       

      Tópicos relacionados a ..........Funk..........