Michael Angelo

    Autor Mensagem
    felipe vai
    Veterano
    # set/04


    Alguem aí tem a tab de Speed_lives_mab?
    Nao axo em lugar algum....e se tiverem d outras musicas dahora dele tbm postem por favor

    conte
    Veterano
    # set/04
    · votar


    pega no mysongbook pro guitar pro
    na verdade essa musica chama "no boundaries"

    felipe vai
    Veterano
    # set/04
    · votar


    eu nao tenho o guitar pro...e quando peguei nao consegui entrar pq dava pau...ngm tem a tab mesmo????

    conte
    Veterano
    # set/04
    · votar


    felipe vai
    eu posso tranporta ela pra vc se vc quiser

    conte
    Veterano
    # set/04
    · votar


    ela eh um pouco diferente da speed lives

    Melqui
    Veterano
    # set/04
    · votar


    conte
    e ae visconte. ;;blz kra?

    conte
    Veterano
    # set/04
    · votar


    No Boundaries


    Tom Jefferson Caulfield
    Electric Guitar



                                                            
    
    E||-----------------------------13-|--17~---------------|
    B||--------------------------15----|--------------------|
    G||-----------------------14-------|--------------------|
    D||--------------------15----------|--------------------|
    A||-----------------17-------------|--------------------|
    E||--------------17----------------|--------------------|



    --17r-----15------18--15--|--15h17---------------------|
    --------------------------|------------15-15-15~-------|
    --------------------------|----------------------------|
    --------------------------|----------------------------|
    --------------------------|----------------------------|
    --------------------------|----------------------------|



    ------------------------------|--------------------------|
    --15h---13--13~-----------10--|--10~-----------10h13-----|
    ------------------------------|----------------------12--|
    ------------------------------|--------------------------|
    ------------------------------|--------------------------|
    ------------------------------|--------------------------|



    -------------------------|-----------------------|
    ------13----------13-----|-----------------------|
    ----------10~---------9~-|------7~-----5---------|
    -------------------------|----------------7h5-3--|
    -------------------------|-----------------------|
    -------------------------|-----------------------|



    -------------------------|------------------------|
    -------------------------|------------------------|
    ----------------------0/-|--10--------9~-----9h10-|
    --5b-5~------------------|------------------------|
    -------------------------|------------------------|
    -------------------------|------------------------|



    ---------------------------|
    --8~-----10~-----11~-------|
    ---------------------------|
    ---------------------------|
    ---------------------------|
    ---------------------------|



    --------------6-9h6-------6-12h9----------9-|
    --13~-------8-------8---8--------11----11---|
    ----------9-----------9-------------12------|
    --------------------------------------------|
    --------------------------------------------|
    --------------------------------------------|



    --12b---------12h10---------|------10----------10-----|
    --------------------13--13~-|-------------------------|
    ----------------------------|----------12~---------9~-|
    ----------------------------|-------------------------|
    ----------------------------|-------------------------|
    ----------------------------|-------------------------|



    -----------------------|--------------------|
    -----------------------|--------------------|
    ------7~-----5---------|--------------------|
    ----------------7h5-3--|--5b-5~-------------|
    -----------------------|--------------------|
    -----------------------|--------------------|



    ----------------------------------|
    ----------------------15------13~-|
    --------------------------14------|
    ----------14--15--14--------------|
    ------12--------------------------|
    --10------------------------------|



    ------------------------------|--------------------|
    ------------13----------13b---|--------------------|
    ------------------------------|------------12b-----|
    ----15--14------15--14--------|--------------------|
    ------------------------------|--------------------|
    ------------------------------|--------------------|



    -------------------------------|
    ----------------------17-18-20-|
    ------12h10--------------------|
    ------------12~----------------|
    -------------------------------|
    -------------------------------|



    --17----------------17----------------17----------------20-1
    -----20-18-17-18-20----20-18-17-18-20----20-18-17-18-20-----
    ------------------------------------------------------------
    ------------------------------------------------------------
    ------------------------------------------------------------
    ------------------------------------------------------------



    --22-20-18----------20-18-17----------18-17-15----------20-1
    -----------22-20-18----------20-18-17----------18-17-15-----
    ------------------------------------------------------------
    ------------------------------------------------------------
    ------------------------------------------------------------
    ------------------------------------------------------------



    --20-18-17--------------------------------------------------
    -----------20-18-17-----------------------------------------
    --------------------17-15-14----------15-14-12--------------
    -----------------------------17-15-14----------15-14-12-----
    --------------------------------------------------------15-1
    ------------------------------------------------------------



    ------------------------------------------------------------
    ------------------------------------------------------------
    --------------------14-12-10----------17-15-14--------------
    -----------15-14-12----------14-12-10----------17-15-14-15-1
    --15-13-12--------------------------------------------------
    ------------------------------------------------------------



    --17~---------15h17-15-13--15~-|
    -------------------------------|
    -------------------------------|
    -------------------------------|
    -------------------------------|
    -------------------------------|



    ----13h15-13-12--13--12h13-12-------------|
    ------------------------------15--13------|
    --------------------------------------14--|
    ------------------------------------------|
    ------------------------------------------|
    ------------------------------------------|



    ---------------------------|--------------------------8-|
    --15~-----------17h15-13---|--15b-15~--------------10---|
    ---------------------------|--------------------10------|
    ---------------------------|----------------------------|
    ---------------------------|----------------------------|
    ---------------------------|----------------------------|



    --12~-----10~---10--8--8~-|------------------------8-|
    --------------------------|--------8----6-------10---|
    --------------------------|------------------10------|
    --------------------------|--------------------------|
    --------------------------|--------------------------|
    --------------------------|--------------------------|



    --12~-----10~-----8-----|
    ---------------------8--|
    ------------------------|
    ------------------------|
    ------------------------|
    ------------------------|



    ---------------------------------8-|
    ----6--5--6h5-----------------10---|
    --------------7-5----------10------|
    ------------------7-6-5------------|
    ------------------------8----------|
    -----------------------------------|



    --12~-----10~---10--8--8~-|-------------------------|
    --------------------------|--------8----6--8h10h8h6-|
    --------------------------|-------------------------|
    --------------------------|-------------------------|
    --------------------------|-------------------------|
    --------------------------|-------------------------|



    -----------------------------|
    --8~---------------------6-8-|
    -------------------5-7-9-----|
    -------------5-7-9-----------|
    -----------------------------|
    -----------------------------|



    ----------------------------------------------------10-13-12
    ----------------------10-13-12-10-8---------8-12-13---------
    --9-7-5---5-7-9-10-12---------------10-9-10-----------------
    --------9---------------------------------------------------
    ------------------------------------------------------------
    ------------------------------------------------------------



    --10-8-7----7-8----------15-19-17-15-13-12----12-13-15-17-19
    ---------10-----15-17-18-------------------15---------------
    ------------------------------------------------------------
    ------------------------------------------------------------
    ------------------------------------------------------------
    ------------------------------------------------------------



    --15-17-19-20-22-22-22-22-22-22-22-22-22------------13-|
    -------------------------------------------------15----|
    ----------------------------------------------14-------|
    -------------------------------------------------------|
    -------------------------------------------------------|
    -------------------------------------------------------|



    --17h13----------13-17h13----------13-17h13----------13-17h1
    --------15----15----------15----15----------15----15--------
    -----------14----------------14----------------14-----------
    ------------------------------------------------------------
    ------------------------------------------------------------
    ------------------------------------------------------------



    --18h13----------13-18h13----------10-15h10----------10-15h1
    --------15----15----------15----11----------11----11--------
    -----------14----------------12----------------12-----------
    ------------------------------------------------------------
    ------------------------------------------------------------
    ------------------------------------------------------------



    --17h13----------13-17h13----------13-22h13----------13-17h1
    --------15----15----------15----15----------15----15--------
    -----------14----------------14----------------14-----------
    ------------------------------------------------------------
    ------------------------------------------------------------
    ------------------------------------------------------------



    --18h13----------13-18h13----------10-15h10----------10-18h1
    --------15----15----------15----11----------11----11--------
    -----------14----------------12----------------12-----------
    ------------------------------------------------------------
    ------------------------------------------------------------
    ------------------------------------------------------------



    --17h13----------13-17h13----------17-22-17-----------------
    --------15----15----------15----18----------18--------------
    -----------14----------------14----------------19-----------
    --------------------------------------------------19--------
    -----------------------------------------------------20-----
    --------------------------------------------------------22~-



    --18h13----------13-18h13----------10-15--------10-18-------
    --------15----15----------15----11-----------11-----------15
    -----------14----------------12-----------12-----------14---
    ------------------------------------------------------------
    ------------------------------------------------------------
    ------------------------------------------------------------



    --17h13----------13-17h13----------17-22-17-----------------
    --------15----15----------15----18----------18--------------
    -----------14----------------14----------------19-----------
    --------------------------------------------------19--------
    -----------------------------------------------------20-----
    --------------------------------------------------------22~-



    --18h13----------13-18h13----------10-15--------10-18-------
    --------15----15----------15----11-----------11-----------11
    -----------14----------------12-----------12-----------12---
    ------------------------------------------------------------
    ------------------------------------------------------------
    ------------------------------------------------------------



    --15h10----------------------------10-15h10-----------------
    --------11----------------------11----------11--------------
    -----------12----------------12----------------12-----------
    --------------12----------12----------------------12--------
    -----------------13----13----------------------------13----1
    --------------------15----------------------------------17--



    --17h12-------------------------------13----------9-12h9----
    --------13-------------------------15----15----11-----------
    -----------14-------------------15----------12------------15
    --------------14-------------15-----------------------------
    -----------------15-------17--------------------------------
    --------------------17-18-----------------------------------



    --15h12--------11-15h11----------11-15h11----------13-17h13-
    ------------13----------13----13----------13----15----------
    ---------12----------------12----------------14-------------
    ------------------------------------------------------------
    ------------------------------------------------------------
    ------------------------------------------------------------



    --17h13----------15-18h15----------15-18h15----------17-20-1
    --------15----16----------16----16----------16----18--------
    -----------15----------------15----------------17-----------
    ------------------------------------------------------------
    ------------------------------------------------------------
    ------------------------------------------------------------



    --20-17----------17-20-17----------14-17-14----------14-|
    --------18----19----------19----16----------16----16----|
    -----------20----------------17----------------17-------|
    --------------------------------------------------------|
    --------------------------------------------------------|
    --------------------------------------------------------|



    --17~---------18/17-15--14--|
    ----------------------------|
    ----------------------------|
    ----------------------------|
    ----------------------------|
    ----------------------------|



    --14~----------------------------10-15-|
    ------------------------------11-------|
    ---------------------------12----------|
    ------------------------12-------------|
    ---------------------13----------------|
    ------------------15-------------------|



    --18-15-10----------------------------10-15-18-15-10--------
    -----------11----------------------11----------------11-----
    --------------12----------------12----------------------12--
    -----------------12----------12----------------------------1
    --------------------13----13--------------------------------
    -----------------------15-----------------------------------



    --18-15-10-------------------14-11----------------11-|
    -----------11----------------------13----------13----|
    --------------12----------------------14----14-------|
    -----------------12----------------------16----------|
    --------------------13-------------------------------|
    -----------------------15----------------------------|



    --17-11----------------11-20-14----------------14-|
    --------13----------13----------16----------16----|
    -----------14----14----------------17----17-------|
    --------------16----------------------19----------|
    --------------------------------------------------|
    --------------------------------------------------|



    --17-14----------------14-17-14-------------11-14-|
    --------16----------13----------16-------13-------|
    -----------17----14-------------------14----------|
    --------------16-------------------16-------------|
    --------------------------------------------------|
    --------------------------------------------------|



    --11----------17-11----------------11---------|
    -----------13-------13----------13----13------|
    --------14-------------14----14---------------|
    -----16-------------------16--------------16--|
    ----------------------------------------------|
    ----------------------------------------------|



    --14~-------------|--10~-----------12h10-----|
    ------------------|----------------------12--|
    --------12h14-16--|--------------------------|
    ------------------|--------------------------|
    ------------------|--------------------------|
    ------------------|--------------------------|



    --10~------------------12-15-14-|
    --------------12-13-15----------|
    --------------------------------|
    --------------------------------|
    --------------------------------|
    --------------------------------|



    --12----------------------------------------------|
    -----15-13-12-------------------------------------|
    --------------14-12-------------------------------|
    --------------------16-14-12-10-------------------|
    --------------------------------14-12-10----------|
    -----------------------------------------14-12-10-|



    ----------------------|--11~---------11------------|
    -------------------9--|-----------------13-11--11~-|
    ----------------9-----|----------------------------|
    ----------------------|----------------------------|
    ----------------------|----------------------------|
    --12------------------|----------------------------|



    ------------------------------|
    ------------------------------|
    ---------------------17-19-20-|
    ------------17-18-20----------|
    ------------------------------|
    ------------------------------|



    -----------18-20-21-20-18----------15-16----------|
    --18-20-21-------------------16-18-------14-16-18-|
    --------------------------15----------------------|
    --------------------------------------------------|
    --------------------------------------------------|
    --------------------------------------------------|



    --------------------16-15-13~-------|
    -----------13-14-16-----------------|
    --12-13-15--------------------------|
    ------------------------------------|
    ------------------------------------|
    ------------------------------------|



    --------------------------------------------|
    -

    conte
    Veterano
    # set/04
    · votar


    Melqui
    fala gozado
    haheahahahe
    =D

    SeEk AnD dEsTrOy
    Veterano
    # set/04
    · votar


    felipe vai
    c jah viu o video do speed kills????
    eh mto foda.....tipo, eu sou baterista e num entendo nada de guitarra, mas eu vi e achei mto foda, nunca vi ninguem fazer...nem satriani, nem malmsteen........mto foda

    Sparkle
    Veterano
    # set/04
    · votar


    SeEk AnD dEsTrOy
    Naum é à toa que o Angelo é o mais rápido né???

    felipe vai
    Veterano
    # set/04
    · votar


    Conte
    Poxa kra...muito obrigado! =D
    Foi de muita ajuda! =D

    SeEk AnD dEsTroY
    Vi sim kra...mas eu curti mais ainda essa q eu pedi....mto foda...Mas o kra eh muito bom mesmo !

    conte
    Veterano
    # set/04 · Editado por: conte
    · votar


    d nda
    boa sorte com essa musica ae
    pq eu fui mto infeliz nela
    heeh

    felipe vai
    Veterano
    # set/04
    · votar


    Hehehehehe!! Eu até q to empolgado...amanha vo fika dah 1 até as 7 tentando tirar ela...alguma coisa legal sai pelo menos..hehehe! Boa sorte na musica...e brigado d novo!

    conte
    Veterano
    # set/04
    · votar


    o foda são os sweeps , eu naum me dou bem com eles
    e olha q curto pra caramba

    André Gomez
    Veterano
    # set/04
    · votar


    conte


    Preciso treinar Sweep tb. Um dia eu consigo cara....

    SeEk AnD dEsTrOy
    Veterano
    # set/04
    · votar


    felipe vai
    vo baxar pra ver....
    Sparkle
    ele tah no g3?

    André Gomez
    Veterano
    # set/04
    · votar


    SeEk AnD dEsTrOy


    Não. Se ele aparecer no G3 aqui no Brasil eu vou de qualquer maneira.....porém não falaram nada sobre ele participar do G3.

      Enviar sua resposta para este assunto
              Tablatura   
      Responder tópico na versão original
       

      Tópicos relacionados a Michael Angelo