villa lobos

    Autor Mensagem
    felipe_borsato
    Veterano
    # mai/03


    alguem tem partituras do villa-lobos??


    ou alguem toca???
    c tocar, deixe uma msg....

    srvaughan
    Veterano
    # mai/03
    · votar


    O cifra club tem uma seção com partituras... dê uma olhada lá...

    Johnny
    Veterano
    # mai/03
    · votar


    Hehehehe! Lá num tem nada naum!
    Eu toco Villa Lobos! Os Estudos! 4 dos 5 Prelúdios! Dois Choros. Tenho um arranjo bem ruinzinho de Trenzinho Caipira! E algumas mais.

    Grow
    Veterano
    # mai/03
    · votar


    olha o solinho do trenzinho caipira

                                                                        
    
    ----------|----------|----------|----------|----------|--0------0--|
    ----------|----------|----------|----------|----------|------------|
    ----------|----------|----------|----------|----------|------------|
    ----------|----------|----------|----------|----------|------------|
    ----------|----------|----------|----------|----------|------------|
    ----------|----------|----------|----------|----------|------------|



    ------------|--0--------|--------0--|--3------3--|-----1---0--|--1--------|
    -----3---1--|-----------|-----------|------------|------------|-----------|
    ------------|-----------|-----------|------------|------------|-----------|
    ------------|-----------|-----------|------------|------------|-----------|
    ------------|-----------|-----------|------------|------------|-----------|
    ------------|-----------|-----------|------------|------------|-----------|



    ----------|--1------1--|-----0------|--1--------|--------1--|--5------5--|
    ----------|------------|---------3--|-----------|-----------|------------|
    ----------|------------|------------|-----------|-----------|------------|
    ----------|------------|------------|-----------|-----------|------------|
    ----------|------------|------------|-----------|-----------|------------|
    ----------|------------|------------|-----------|-----------|------------|



    -----3---1--|--3--------|----------|--8------8--|-----7---5--|--7--------|
    ------------|-----------|----------|------------|------------|-----------|
    ------------|-----------|----------|------------|------------|-----------|
    ------------|-----------|----------|------------|------------|-----------|
    ------------|-----------|----------|------------|------------|-----------|
    ------------|-----------|----------|------------|------------|-----------|



    --0--------|--5------5--|-----3---1--|--3--------|----------|--1------1--|
    -----------|------------|------------|-----------|----------|------------|
    -----------|------------|------------|-----------|----------|------------|
    -----------|------------|------------|-----------|----------|------------|
    -----------|------------|------------|-----------|----------|------------|
    -----------|------------|------------|-----------|----------|------------|



    -----0------|--0------0--|------------|------------|-----------------|
    ---------3--|------------|-----3---1--|--3------3--|-----1----0------|
    ------------|------------|------------|------------|---------------2-|
    ------------|------------|------------|------------|-----------------|
    ------------|------------|------------|------------|-----------------|
    ------------|------------|------------|------------|-----------------|



    ----------|-------------|---------------|----------------|----------|
    ----------|--------0--3-|-----3----3----|-----1--0-------|----------|
    ----------|-------------|---------------|-------------2--|----------|
    ----------|-------------|---------------|----------------|----------|
    ----------|-------------|---------------|----------------|----------|
    ----------|-------------|---------------|----------------|----------|



    --------17--22-|----22--22----22-|----22--20--19--|--17--------|------------|
    ---------------|-----------------|----------------|------------|------------|
    ------------19-|----19-----------|----------------|------------|--------16--|
    --------19-----|--------24----24-|----24--22--21--|--19--------|------------|
    ---------------|-----------------|----------------|------------|------------|
    ---------------|-----------------|----------------|------------|------------|



    ------------|------------|------------|----------|-----------|--------------|
    ------------|--------12--|--10--------|----------|-----------|--3--3--------|
    --14--------|------------|------------|----------|--------2--|--5--5--5--4--|
    ------------|------------|------------|----------|-----------|--------------|
    ------------|------------|------------|----------|-----------|--------------|
    ------------|------------|------------|----------|-----------|--------------|



    ------------|-----0-----------|------------|--------------|-------------|
    ------------|--3-----3--1--0--|------------|--3--3--1--0--|-------------|
    --2------2--|-----------------|--2------2--|--------------|--2--0--2----|
    ------------|-----------------|------------|--------------|-------------|
    ------------|-----------------|------------|--------------|-------------|
    ------------|-----------------|------------|--------------|-------------|



    --------17--|--22--24--27--27--|--25--24--22--20--19--17--|--15--17------17--|
    --------15--|------------------|--------------------------|--------------17--|
    ------------|--19--21--22--24--|--22--21------------------|------19----------|
    ------------|------------------|----------24--22--21--19--|--17--19----------|
    ------------|------------------|--------------------------|------------------|
    ------------|------------------|--------------------------|------------------|



    --29--27--22--29--29--27--|--22--29--29--27--22--29--|--29--27--22--29----|
    --------------29----------|------29--------------29--|--------------29----|
    --------------------------|--------------------------|--------------------|
    --------------------------|--------------------------|--------------------|
    --------------------------|--------------------------|--------------------|
    --------------------------|--------------------------|--------------------|



    ----------|----------|----------|----------|----------|----------|----9------|
    ----------|----------|----------|----------|----------|----------|-----------|
    ----------|----------|----------|----------|----------|----------|----9------|
    ----------|----------|----------|----------|----------|----------|----8------|
    ----------|----------|----------|----------|----------|----------|-----------|
    ----------|----------|----------|----------|----------|----------|-----------|



    ----------|----------|----------|--24------24--|-------22---20--|--24--------|
    ----------|----------|----------|--------------|--22--------22--|--20--------|
    ----------|----------|----------|--21------21--|-------24-------|--21--------|
    ----------|----------|----------|--------------|-------24---22--|------------|
    ----------|----------|----------|--------------|----------------|------------|
    ----------|----------|----------|--------------|----------------|------------|



    --------24--|--27------27--|-------25---24--|--25--------|----------|
    ------------|--24----------|--24---27---24--|--22--------|----------|
    --------21--|----------24--|-------22---21--|--22--------|----------|
    ------------|--------------|----------------|------------|----------|
    ------------|--------------|----------------|------------|----------|
    ------------|--------------|----------------|------------|----------|



    --25------25--|-------24---22--|--25--------|------25----|--29------29--|
    --------------|--24---22---24--|------------|------------|--22------22--|
    --22------22--|-------21-------|--22--------|------22----|--------------|
    --------------|------------24--|------------|------------|--------------|
    --------------|----------------|------------|------------|--------------|
    --------------|----------------|------------|------------|--------------|



    --22---27---25--|--27--------|----------|--20------20--|--27---24---27--|
    -------24---27--|--25--------|----------|--------------|-------24---22--|
    -------24---22--|--24--------|----------|--------------|----------------|
    ----------------|------------|----------|--------------|----------------|
    ----------------|------------|----------|--------------|----------------|
    ----------------|------------|----------|--------------|----------------|



    ------------|--24--------|--29------29--|--22---27---25--|--27--------|
    --24--------|------------|--22------22--|-------24---27--|------------|
    ------------|--21--------|--------------|-------24---22--|--24--------|
    ------------|------------|--------------|----------------|------------|
    ------------|------------|--------------|----------------|------------|
    ------------|------------|--------------|----------------|------------|



    ----------|--25------25--|--22---24---22--|--24------24--|-------22---20--|
    ----------|--------------|-------24-------|--------------|-------24---20--|
    ----------|--22------22--|-------21-------|--21------21--|--24------------|
    ----------|--------------|------------24--|--------------|-------24---22--|
    ----------|--------------|----------------|--------------|----------------|
    ----------|--------------|----------------|--------------|----------------|



    --22------22--|-------20---19--|--17--------|--------17--|--22------22--|
    --------------|--24---22-------|------------|------------|--------------|
    --------------|----------------|------------|------------|--19------19--|
    --24------24--|-------22---21--|--19--------|--------19--|--------------|
    --------------|----------------|------------|------------|--------------|
    --------------|----------------|------------|------------|--------------|



    -------20---19--|--17--------|--------17--|--22---22---22--|------20--19--|
    -------22-------|------------|------------|------------22--|------22------|
    --22--------22--|------------|------------|--19---22-------|----------22--|
    -------22---21--|--19--------|--------19--|-------24---24--|------22--21--|
    ----------------|------------|------------|----------------|--------------|
    ----------------|------------|------------|----------------|--------------|



    --17--------|--------19--|--17--------|--------19--|--17--------|--------19--|
    ------------|------------|------------|------------|------------|------------|
    ------------|------------|------------|------------|------------|------------|
    --19--------|--------21--|--19--------|--------21--|--19--------|--------21--|
    ------------|------------|------------|------------|------------|------------|
    ------------|------------|------------|------------|------------|------------|



    --17--------|----------|----------|----------|----------|----------|----------|
    ------------|----------|----------|----------|----------|----------|----------|
    ------------|----------|----------|----------|----------|----------|----------|
    --19--------|----------|----------|----------|----------|----------|----------|
    ------------|----------|----------|----------|----------|----------|----------|
    ------------|----------|----------|----------|----------|----------|----------|



    ----------|----------|----------|----------|----------|----------|----------|
    ----------|----------|----------|----------|----------|----------|----------|
    ----------|----------|----------|----------|----------|----------|----------|
    ----------|----------|----------|----------|----------|----------|----------|
    ----------|----------|----------|----------|----------|----------|----------|
    ----------|----------|----------|----------|----------|----------|----------|



    ----------|----------|----------|----------|----------|----------|----------|
    ----------|----------|----------|----------|----------|----------|----------|
    ----------|----------|----------|----------|----------|----------|----------|
    ----------|----------|----------|----------|----------|----------|----------|
    ----------|----------|----------|----------|----------|----------|----------|
    ----------|----------|----------|----------|----------|----------|----------|



    ----------|----------|----------|----------|----------|----------|----------|
    ----------|----------|----------|----------|----------|----------|----------|
    ----------|----------|----------|----------|----------|----------|----------|
    ----------|----------|----------|----------|----------|----------|----------|
    ----------|----------|----------|----------|----------|----------|----------|
    ----------|----------|----------|----------|----------|----------|----------|



    ----------|----------|----------|----------|----------|----------|----------|
    ----------|----------|----------|----------|----------|----------|----------|
    ----------|----------|----------|----------|----------|----------|----------|
    ----------|----------|----------|----------|----------|----------|----------|
    ----------|----------|----------|----------|----------|----------|----------|
    ----------|----------|----------|----------|----------|----------|----------|



    ----------|----------|----------|----------|----------|----------|----------|
    ----------|----------|----------|----------|----------|----------|----------|
    ----------|----------|----------|----------|----------|----------|----------|
    ----------|----------|----------|----------|----------|----------|----------|
    ----------|----------|----------|----------|----------|----------|----------|
    ----------|----------|----------|----------|----------|----------|----------|



    ----------|----------|----------|----------||
    ----------|----------|----------|----------||
    ----------|----------|----------|----------||
    ----------|----------|----------|----------||
    ----------|----------|----------|----------||
    ----------|----------|----------|----------||



    PéZAUM
    Veterano
    # mai/03
    · votar


    villa lobos rlz :)

    strinberger
    Veterano
    # mai/03
    · votar


    Johnny

    Me consegue as partituras????

    meu icq: 53970353

    Diniz
    Veterano
    # mai/03
    · votar


    c vcs tiverem grana adoidado : www.freenote.com.br
    Lah tem um livro com uns par d partituras do villa lobos, alem de um monte de outros.

    Curupyra
    Veterano
    # jul/05
    · votar


    Eu tenho as partituras do Chôros no.1, da Suite populaire bresilienne e dos 12 Etudes, todos em excelente qualidade, revisados e com digitação. Só não consegui encontrar os 5 prelúdios....
    Quem tiver, favor avisar. Quem quiser alguma das partituras que eu tenho é só pedir que eu mando. Abço.

    Vinícius Scolanzi
    Veterano
    # jul/05
    · votar


    Eu tenho a partitura do Preludio 5 .. também revisada e com digitação
    Eu estou procurando a dos outros 4 .. quem tiver ou souber onde eu posso encontrar por favor entre em contato por e-mail ou msn

      Enviar sua resposta para este assunto
              Tablatura   
      Responder tópico na versão original
       

      Tópicos relacionados a villa lobos