Intro de Shadow Hunter do Angra - Cifra

Autor Mensagem
KingInCrimson
Veterano
# out/04


Do Cd novo. Não achei na net. Tava tentando tirar mas tá difícil. Alguém que tenha a cifa ou tenha tirado?

KingInCrimson
Veterano
# out/04
· votar


Começa com algo do tipo...

e------------------------------------------------------
B-----------------5-------------------------------------
G-----------2h4h5-------------------------------------------
D------4h5------------------4h5------------------------------
A------------------------------------------------------
E---2----------------0h2-2------2----------------------------


Foi o que eu consegui.

SoldierOfFear2
Veterano
# mai/05
· votar


Eu já tirei. Queria que alguém ajudasse a corrigir o dedilhado, pois tirei direto no guitar pro.

E||-----------------0---------------|

B||-----------2-----------2-----2---|
G||-------------0-----0-----0-----0-|
D||-----4h5h4-----4-----4-----4-----|
A||---------------------------------|
E||--2------------------------------|



-------------0-------------------|
-------2-------------------------|
---------0-----0-----4-----0-----|
-----4-----4-------2-----2-------|
---------------------------------|
--2--------------3-----0-----2h3-|



-----------------0-----------------|
-----------2-----------2---0-------|
-------------0-----0-----0---------|
-----4h5h4-----4-----4-------------|
-----------------------------------|
--2--------------------------2h3h0-|



-----------------0--------------------|
-----------2------------0-----------0-|
-------------0--------0---2-0-----0---|
-----4h5h4-----4----4---------2-4-----|
--------------------------------------|
--2-----------------------------------|



-----------------0-----------------|
-----------2-----------2---0-------|
-------------0-----0-----0---------|
-----4h5h4-----4-----4-------------|
-----------------------------------|
--2--------------------------2h3h0-|



-------------0-------------------|
-------2-------------------------|
---------0-----0-----4-----0-----|
-----4-----4-------2-----2-------|
---------------------------------|
--2--------------3-----0-----2h3-|



-----------------0-----------------|
-----------2-----------2---0-------|
-------------0-----0-----0---------|
-----4h5h4-----4-----4-------------|
-----------------------------------|
--2--------------------------2h3h0-|



---------x-0-0-0-0-0-x-0-----------2-3-|
---------x-0-2-2-2-2-x-0-----2-3-5-----|
-----0-0-x-0-0-0-0-0-x-0---4-----------|
-----4-4-x-4-4-4-4-4-x-4---------------|
-----4-4-x-4-4-4-4-4-x-4---------------|
--2--2-2-x-2-2-2-2-2-x-2---------------|



--5-------------5-------------|--0-------------0----------0/-|
----2---3--5-3----2---3--5-3--|----0---2--5-2----0---2--5-2--|
--4---4---------4---4---------|--3---3---------3---3---------|
------------------------------|------------------------------|
------------------------------|------------------------------|
------------------------------|------------------------------|



--3-------------2h0-------0--|--2--------0---0--------0---|
-----------0--2------3-------|--------2------------0------|
--------0-----------------4--|--3---3--------4---3--------|
----2-4-----------------4----|----4----------4-4----------|
-----------------------------|----------------------------|
-----------------------------|--2------------2------------|



--------------2h0-----0------|--2--------0---0--------0---|
----------0--------3---------|--------2------------0------|
-------0---------------------|--3---3--------4---3--------|
-----4-----------------------|----4----------4-4----------|
-----------------------------|----------------------------|
--0--------------------------|--2------------2------------|



--------------2h0-----0/--|--5-------------5-------------|
----------0--------3------|----2---3--5-3----2---3--5-3--|
-------0------------------|--4---4---------4---4---------|
-----4--------------------|------------------------------|
--------------------------|------------------------------|
--0-----------------------|------------------------------|



--0-------------0----------0/-|--3-------------2h0-------0--|
----0---2--5-2----0---2--5-2--|-----------0--2------3-------|
--3---3---------3---3---------|--------0-----------------4--|
------------------------------|----2-4-----------------4----|
------------------------------|-----------------------------|
------------------------------|-----------------------------|



--2--------0---0--------0---|--------------2h0-----0------|
--------2------------0------|----------0--------3---------|
--3---3--------4---3--------|-------0---------------------|
----4----------4-4----------|-----4-----------------------|
----------------------------|-----------------------------|
--2------------2------------|--0--------------------------|



--2--------0---0--------0---|--------------2h0-----0------|
--------2------------0------|----------0--------3---------|
--3---3--------4---3--------|-------0---------------------|
----4----------4-4----------|-----4-----------------------|
----------------------------|-----------------------------|
--2------------2------------|--0--------------------------|



-------------0---------------|
---------2-------2---0-------|
-----3-------------0---------|
-----------------------------|
-----------------------------|
--2--------------------2h3h0-|



---------x-0-0-0-0-0-x-0---------||
---------x-0-2-2-2-2-x-0---------||
-----0-0-x-0-0-0-0-0-x-0---------||
-----4-4-x-4-4-4-4-4-x-4---------||
-----4-4-x-4-4-4-4-4-x-4---------||
--2--2-2-x-2-2-2-2-2-x-2---------||



JediKnight
Veterano
# mai/05
· votar


alá ..mais um de crimson

SoldierOfFear2
Veterano
# mai/05
· votar


JediKnight
É multi meu.

Marisco
Veterano
# mai/05
· votar


SoldierOfFear2
Tu tem o guitar pro dessa música?

SoldierOfFear2
Veterano
# mai/05
· votar


Tenho, eu tirei direto lá.

SoldierOfFear2
Veterano
# mai/05
· votar


Mas foi só a intro e ainda tá cheia de erros.

Marisco
Veterano
# mai/05
· votar


manda ae que posso tentar corrigir
marisco_guitar@terra.com.br

Queen of the Night
Veterano
# mai/05
· votar


alguem da um up na tab do guitar pro? :D

SoldierOfFear2
Veterano
# mai/05
· votar


Marisco
Beleza

Queen of the Night


alguem da um up na tab do guitar pro? :D


DEixa eu terminar de tirar (vai levar uns anos)

SoldierOfFear2
Veterano
# mai/05
· votar


Marisco
REcebeu o e-mail?

vinsanity
Veterano
# mai/05
· votar


porra massa... to procurando a tab dessa musica...

eu tava tirando waiting silence, mas é meio foda passar pro guitarpro direto... estou sem guitarra, se alguem tiver afim podemos combinar de tirar...

SoldierOfFear2
Veterano
# mai/05
· votar


vinsanity
mas é meio foda passar pro guitarpro direto

Eu só tiro assim, sem a guitarra perto. Tanto é que eu nem tenho, toco baixo.

vinsanity
Veterano
# mai/05
· votar


só um detalhe... naquela 'variação' da sexta corda, o certo é:

3--0------2-3-2

SoldierOfFear2
Veterano
# mai/05
· votar


Onde?

vinsanity
Veterano
# mai/05
· votar


eu na verdade nao curto muito tirar as partes de guitarra pro guitarpro... eu costumo colocar alguma coisa que me lembre do jeito certo que é... eu faço isso mais pelas backtrackings mesmo, pra tocar junto, dai nao precisa da guitarra certinha...

SoldierOfFear2
Veterano
# mai/05
· votar


Eu gosto é de tirar mesmo. Eu tiro todos os intrumentos, batera e tudo.

vinsanity
Veterano
# mai/05
· votar



-----------------0-----------------|
-----------2-----------2---0-------|
-------------0-----0-----0---------|
-----4h5h4-----4-----4-------------|
-----------------------------------|
--2--------------------------2h3h0-|


aqui por exemplo, onde tem 2h3h0... substitui pelo que coloquei ali em cima... ao menos eu acho que fica mais certo...

SoldierOfFear2
Veterano
# mai/05
· votar


Eu testei aqui. É do jeito que tá mesmo. É por que o fá# vem logo no outro compasso.

SoldierOfFear2
Veterano
# mai/05
· votar


A tab do gp tá aqui:

http://s47.yousendit.com/d.aspx?id=0VLVSR3AVTR7B0ZOWNLB41E355

Marisco
Veterano
# mai/05
· votar


SoldierOfFear2
Recebi tche. O bom é que os ritmos estão quase todos corretos, daí facilita bastante. Semana que vem eu vou tentar acertar ela!

SoldierOfFear2
Veterano
# mai/05
· votar


down

SoldierOfFear2
Veterano
# mai/05
· votar


lift

Hitoriki
Veterano
# mai/05
· votar


eu to tirando com amigo meu pela net essa musica toda... já terminei de escrever a intro (c/ percurssão)

Lucas R
Veterano
# mai/05
· votar


SoldierOfFear2
upa ae de novo mano!

SoldierOfFear6
Veterano
# mai/05
· votar


Hitoriki
Eu já fiz a percussão.

SoldierOfFear6
Veterano
# mai/05
· votar


Lucas R
http://rapidshare.de/files/2039680/Angra_-_Shadow_Hunter.mid.html

SoldierOfFear6
Veterano
# mai/05
· votar


Satã!

Lucas R
Veterano
# mai/05
· votar


SoldierOfFear6
eu to ajudando ele, vo tirar a guita tambem, ele ja tah acabando a bateria já! :)

Enviar sua resposta para este assunto
        Tablatura   
Responder tópico na versão original
 

Tópicos relacionados a Intro de Shadow Hunter do Angra - Cifra