Tab - A Song For Life

    Autor Mensagem
    Alguém
    Veterano
    # fev/04


    Alguém aí poderia por favor conferir o trecho a seguir. No trecho em que há hammers e pulls. É isso mesmo? O cara toca rápido e eu não consegui entender se é isso.

    Qualquer ajuda é bem vinda.
    Agradecido



    ||-0-------|--0---------|--0------0--|-(0)---^0-----|
    ||-2-------|--3---------|--6------6--|-(6)---^6-----|
    ||-2-------|--4---------|--7------7--|-(7)---^7-----|
    ||-2-------|--3---------|--7------7--|-(7)---^7-----|
    ||---------|------------|---------0--|-(0)---^0-----|
    ||---0-0-0-|-(0)-0-0-0--|-(0)--------|--------------|


                                    |--3--| |-3--|
    
    |-0--------|--0-------|-^0--(0)-------------|--0-------7-|
    |-2--------|--3-------|-^0--(0)-------------|------7s9---|
    |-2--------|--4-------|-^5-----------9------|------------|
    |-2--------|--3-------|-^7------9h12---12p9-|------------|
    |----------|----------|-^7------------------|------5s7---|
    |----0-0-0-|-(0)-0-0--|------0--------------|-12---------|


    Alguém
    Veterano
    # fev/04
    · votar


    É a parte em negrito.

    LOW Fl
    Veterano
    # fev/04
    · votar


    Alguém
    Adoro tocar essa, é muito show ela.

    Esse trecho é assim mesmo, só que vc tem que tcar esse trecho em tercinas, ou seja sai um pouco masi rápido esse lick, só escutar a musica que pega o tempo.

    Alguém
    Veterano
    # fev/04
    · votar


    Muito obrigado! Essa música é realmente boa.

      Enviar sua resposta para este assunto
              Tablatura   
      Responder tópico na versão original
       

      Tópicos relacionados a Tab - A Song For Life