Os Melhores riffs do rock...postem aqui!!!

    Autor Mensagem
    Zorro
    Veterano
    # jan/03


    Æ , quais são os melhores riffs do rock para vocês? Postem aki...veja alguns :

    AC/DC - Back in Black

    E----------------------------3-0--------|
    B--------3-3-3--x- ---------------3-0----|
    G--------2-2-2--x--2-2-2--x----------2^0|
    D- -2--x--0-0-0--x--2-2-2--x-------------|
    A--2--x------------0-0-0--x-- -----------|
    E--0--x------------0-0-0--x-------------|

    E---------- --------------------------------|
    B--------3-3-3--x------------------ --------|
    G--------2-2-2--x--2-2-2--x----------------|
    D--2--x--0-0- 0--x--2-2-2--x----------------|
    A--2--x------------0-0-0--x---2--2--2 --2---|
    E--0--x------------0-0-0--x----4--5--6--7__|



    Black Sabbath----------------- Iron Man ---------------

    D--4--7--7-9-9--12\11-12\10-12\10--7-7-9-9--|
    A--2--5--5-7-7--10\9--11\9--11\9---5-5-7-7--|


    Steve Vai ----- For The Love of God--------------------

    E------------------------------------------ --|
    B---------------------15h17p15-12--------15--|
    G----------14-14/ 16---------------14/16----14|
    D--------12---------------------------- ------|
    A--12/14-------------------------------------|
    E------------ --------------------------------|


    B.B. King (Blues) --- Hey Hey -----------

    E--3p2p0-3-2-----0|-4---4p2-0-----|
    B----------------- |---5----0------|
    G-------------0h1-|--4-4------0h1-|
    D------------- ----|---------------|
    A-----------------|---------------|
    E--0-----0 -0--0---|-----------0---|


    Eagles-------Hotel California-----

    Apenas uma pequena parte...

    E---7-6-7-9-10-9-10-12-12/14__|
    B------------------------ -----|

    Nirvana-------Come As You Are----------------

    A-----------0--0-------|-2----2------|
    E-0-0-1 -2----2--2-2-1-0|--0-0--0-1-2-|


    --------------------------------- --------------

    Bom tem muito mais , como Sweet Child O'Mine, Tears in Heaven, rifs do Ven halen....e muitos outros....


    Postem vocês Também e digam o que mais gostam....

    Zorro
    Veterano
    # jan/03
    · votar


    PUTS SAIU TUDO ERRADO!!!
    AC/DC - Back in Black

    E----------------------------3-0--------|
    B--------3-3-3--x- ----------------3-0----|
    G--------2-2-2--x--2-2-2--x-------------2^0|
    D--2--x--0-0-0--x--2-2-2--x--------------|
    A--2--x------------0-0-0--x--------------|
    E--0--x------------0-0-0--x-------------|

    E---------- --------------------------------|
    B--------3-3-3--x------------------ --------|
    G--------2-2-2--x--2-2-2--x----------------|
    D--2--x--0-0-0--x--2-2-2--x----------------|
    A--2--x------------0-0-0--x---2--2--2--2---|
    E--0--x------------0-0-0--x----4--5--6--7__|


    Black Sabbath----------------- Iron Man ---------------


    D--4--7--7-9-9--12\11-12\10-12\10--7-7-9-9--|
    A--2--5--5-7-7--10\9--11\9--11\9----5-5-7-7--|


    B.B. King (Blues) --- Hey Hey -----------

    E--3p2p0-3-2--------0|-4---4p2-0-----|
    B----------------- --|---5----0------|
    G---------------0h1--|--4-4------0h1-|
    D------------- ------|---------------|
    A--------------------|---------------|
    E--0------0--0--0---|------------0---|
    Nirvana-------Come As You Are----------------

    A-----------0--0--------|-2----2------|
    E-0-0-1--2----2--2-2-1-0|--0-0--0-1-2-|
    Se não Deu Certo Agora eu desisto!!!!!!!!!!!!!!!!!!!!!



    [b][/b]

    Rodrigo
    Veterano
    # jan/03
    · votar


    Jethro tull
    Aqualung....eh bem marcante... e simples
    e----------------
    b----------------
    g----------------
    d--- -------------
    a--5-----5-6----5---
    e----3-6------------


    acho q eh isso...to sem a guitarra aki....se aguem sube pode corrigi ae

    raphamartins
    Veterano
    # jan/03
    · votar


    ae pessoal alguem sabe [u]JUMP[/u] do VAN HALEN ????????
    por favor!!!!!!!!!!!

    Ps1c0
    Veterano
    # jan/03
    · votar


    Eu arrumo proce!!!
    postado por Zorro

    Æ , quais são os melhores riffs do rock para vocês? Postem aki...veja alguns : 
    

    AC/DC - Back in Black

    E----------------------------3-0--------|
    B--------3-3-3--x- ---------------3-0----|
    G--------2-2-2--x--2-2-2--x----------2^0|
    D- -2--x--0-0-0--x--2-2-2--x-------------|
    A--2--x------------0-0-0--x-- -----------|
    E--0--x------------0-0-0--x-------------|

    E---------- --------------------------------|
    B--------3-3-3--x------------------ --------|
    G--------2-2-2--x--2-2-2--x----------------|
    D--2--x--0-0- 0--x--2-2-2--x----------------|
    A--2--x------------0-0-0--x---2--2--2 --2---|
    E--0--x------------0-0-0--x----4--5--6--7__|



    Black Sabbath----------------- Iron Man ---------------

    D--4--7--7-9-9--12\11-12\10-12\10--7-7-9-9--|
    A--2--5--5-7-7--10\9--11\9--11\9---5-5-7-7--|


    Steve Vai ----- For The Love of God--------------------

    E------------------------------------------ --|
    B---------------------15h17p15-12--------15--|
    G----------14-14/ 16---------------14/16----14|
    D--------12---------------------------- ------|
    A--12/14-------------------------------------|
    E------------ --------------------------------|


    B.B. King (Blues) --- Hey Hey -----------

    E--3p2p0-3-2-----0|-4---4p2-0-----|
    B----------------- |---5----0------|
    G-------------0h1-|--4-4------0h1-|
    D------------- ----|---------------|
    A-----------------|---------------|
    E--0-----0 -0--0---|-----------0---|


    Eagles-------Hotel California-----

    Apenas uma pequena parte...

    E---7-6-7-9-10-9-10-12-12/14__|
    B------------------------ -----|

    Nirvana-------Come As You Are----------------

    A-----------0--0-------|-2----2------|
    E-0-0-1 -2----2--2-2-1-0|--0-0--0-1-2-|


    joao balao
    Veterano
    # jan/03 · Editado por: joao balao
    · votar


    |--------------| 
    
    |--------------|
    |--------------|
    |--------------|
    |-5-----3-4-3--|
    |---3-6--------|

    esse é o riff de aqualung

    ritchieblackmore
    Veterano
    # jul/09
    · votar


    E---------------------------------------------------------
    B--------------------------------------------------
    G------------------------------------------------------
    D-------------------------------------------------------
    A---------------------------------------------------------
    E----2----5----7----2----5----8----7----2----5----7----5---2

    Smoke on the water

    marcio_zav
    Veterano
    # jul/09
    · votar


    1/jan/03 20:36


    Porra, que velho
    Nesse dia e horário eu tava pegando o violão e tirando minha 1a. música.

    E é sério o.o

    thiagobice
    Veterano
    # jul/09 · Editado por: thiagobice
    · votar


    ritchieblackmore
    Tá garimpando mesmo hein!

    Mas o que acho mais animal tambem é o do Jethro tull - Aqualung

    ritchieblackmore
    Veterano
    # ago/09
    · votar


    Jethro tull - Aqualung
    daora essa musica.......oq mais me impressiona é como os caras em cima de algumas notas conseguem fazer esses super riffs

      Enviar sua resposta para este assunto
              Tablatura   
      Responder tópico na versão original
       

      Tópicos relacionados a Os Melhores riffs do rock...postem aqui!!!