Human Nature - Tab + Vídeo

    Autor Mensagem
    Rato
    Veterano
    # set/09 · Editado por: Rato




    Intro: 2 x


    e------------------------------------------------------
    B----------3--2-3-0-3---3---2--0-----1---1--1--1---0-0-
    G---------3-----------2---2--2-------1-4--2--0--0---0--
    D--------0--------0--0--------------3------------------
    A-----------------------------------------0------------
    E-------3---------------------------1------------------


    PARTE 1

       G   A               G      
    e----------------------------------------------------------
    B------3-2----2-3p2--------------------------3p2-3p2-------
    G----4-4-2---2------4-2----4----4----2---------------4--2--
    D----5------2--------------5----5------4-------------------
    A-----------------------------5----------0-----------------
    E----3---------------------5-------------------------------


    PARTE 2 2x

       G   A               G      
    e-------------------------------------------------------
    B----------2h3-2---2----------------------3p2-3p2-------
    G----4--4---------2---4-2--4----4--2-------------4--2---
    D----5--5--------2---------5----5----4------------------
    A------5-----------------------5----------0-------------
    E----3---------------------5----------------------------


    PARTE 3

       G           D7+             
    e-------------------2-----------------------------------
    B---------3---5----2--2---2-s-3------3--3---3-----------
    G----4--4-4-------2-----------------0-0--0---0-----2h4-2
    D----5--5-----2--2--------3-s-4----4---4--4---4---------
    A------5-----------------------------------------0------
    E----3--------2-------0---------------------------------


    REPETE TUDO

    PARTE 4


       G       A              D            Bm B9          
    e----------------------------2---0----------------------
    B-------3-----2-----2---2----3-----3-2----3--2----------
    G----4--4-----2----2-2-2-----2------------4--4--4-2-----
    D----5--------2---2---2----0---------0----4--4--4-2------
    A-----------------------------------------2--2--2--------
    E----3------------------------------------2------------




    PARTE 5

       G       A                                     
    e--------------------------------------------------------------
    B-------3-----2-----2-----3-3-3-3-5-3------3---3--3— repete 2 x
    G----4--4-----2----2-2-2------------------0-0---0--------------
    D----5--------2---2---2------------------4---4---4-------------
    A---------------------------------------0----------------------
    E----3--------------------0-------0----------------------------



    PARTE 6


                              
    e-----11-s---5---5--5---5------5----5-----5----5--11-s---repete 4 x
    B------------3--3---5--5-5-----5---5------3---3-----------
    G------------4-4----6-6---6----5--5-------4--4-----------
    D------------3------5----------3----------2---------------
    A----0-------3-----------------3--------------------------
    E-------------------------0-------------------------------







    então.
    Bem facinha e bonitinha ^^ . A gravação ficou com o som bem baixo, mas acho q dá para o gasto.
    Depois vejo se gravo uma melhor e posto aqui.

    esse negócio de tablatura dá um trabalho, pqp
    depois me paga uma cerveja Carina K
    ^^

    =D



    kiki
    Moderador
    # set/09
    · votar


    pô, é o mesmo video, achei que era outro...

    esse negócio de tablatura dá um trabalho, pqp
    ce passou ta partitura pra tab?

    Meu filho ouvirá Classic Rock
    Veterano
    # set/09
    · votar


    esse negócio de tablatura dá um trabalho, pqp

    PQP, verdade hauhauhaahuah /õ\

    Ficou legal mano Rato, parabéns aew! Espero que ajude alguém õ/

    Carina K
    Veterano
    # set/09
    · votar


    Rato
    depois me paga uma cerveja Carina K
    kkkkkkkkkkkkkkkkkkkkkkkkkkkk
    :p

    brigada pela tab! vou gravar dps tbm! o seu fico otimo! ^^

    Rato
    Veterano
    # out/09
    · votar


    =D




    kiki
    nada.
    Foi direto do braço do violão =/


    Carina K
    grava e posta aí pow
    :)

    Meu filho ouvirá Classic Rock
    boa guras

      Enviar sua resposta para este assunto
              Tablatura   
      Responder tópico na versão original
       

      Tópicos relacionados a Human Nature - Tab + Vídeo