alguem pode me ajudar???

    Autor Mensagem
    The SkullKiller
    Veterano
    # ago/03 · Editado por: The SkullKiller


    TENHO PROBLEMAS PARA FAZER A PESTANA SI MAIOR

    The SkullKiller
    Veterano
    # ago/03
    · votar


    alguem ajude aí...

    ZeratuL
    Veterano
    # ago/03
    · votar



    e----------Tudo se resolve em uma palavra--------------
    B----------------------TREINO!!!-----------------------
    G------------------------------------------------------
    D------------------------------------------------------
    A------------------------------------------------------
    E------------------------------------------------------


    Vic Wolk
    Veterano
    # ago/03
    · votar



    e--2----------------------------------------------------
    B--4----------------------------------------------------
    G--4----------------------------------------------------
    D--4----------------------------------------------------
    A--2----------------------------------------------------
    E-------------------------------------------------------


    Nada mais a dizer... tenta comecar sem fazer a pestana, poe o dedo indicador na mizinha e tenta assim ateh se acostumar com os 3 dedos nos 4s.

    The SkullKiller
    Veterano
    # ago/03
    · votar


    ah, valeu

    bflopess
    Veterano
    # ago/03
    · votar


    Olá. Na minha opnião você não deve começar a fazer sem pestana e sim com ela, treinando sempre quando aperfeiçoá-la sempre irá tocar com elas. No início é dificil mais depois você pega o jeito.
    Falou...

    Cassio
    Veterano
    # set/03
    · votar


    Treina acordes normais e pestanas que acha mais fácil, tipo Bm. Já já vc pega tb o B e tal.
    Akele skema> TREINO

    Dennis_Tecladista_Doido
    Veterano
    # set/03
    · votar


    uhn,... tipo... faz aquele C/D e depois vai tentando fazer o B... é questão de treino...

    glaucio
    Veterano
    # out/03
    · votar




    NAO SEI SE FICA LEGAL MAS ACHO Q SE VC COM~ÇAR ASSIM E TREINAR MUUUUUUUUUUUUUITO VC ACABA CONSEGUINDO.


    e-----2-------------------------------------------------
    B-----4-------------------------------------------------
    G-----4-------------------------------------------------
    D-----4-------------------------------------------------
    A------------------------------------------------------
    E------------------------------------------------------


    maggie
    Veterana
    # out/03
    · votar



    e-----2-------------------------------------------------
    B-----4-------------------------------------------------
    G-----4-------------------------------------------------
    D-----4-------------------------------------------------
    A------------------------------------------------------
    E------------------------------------------------------


    Isso. Mas não vai ficar preguiçoso! hehe

    fernandofaria
    Veterano
    # out/03
    · votar


    putz tenho o mesmo problema que vc cara faço o F Bm e outros acordes com pestana menos o B

    deveria ter um treino só pra esse acorde

    todo mundo fala treinar , mas como simplesmente ficar fazendo esse acorde?

    Edson Sousa
    Veterano
    # out/03
    · votar


    O acorde si maior é formado por três notas, é uma tríade:

    si(Fundamental), re#(Terça) e fa#(Quinta)

    Fazer essa pestana realmente é muito ruim, dá para ficar com a mão doendo, mas tenho duas dicas para vocês:

    1ª) Na verdade essa pestana só precisa pressionar a 5ª corda e a 1ª corda, pois a 2ª, 3ª e 4ª cordas já estão sendo pressionadas pelos dedos 4, 3 e 2 (Fig.1). Sendo assim pressione a 5ª corda com o indicador(cabeça do dedo) e puxe um pouco a mão para trás, encostando-o na 1ª corda. Não precisa colocá-lo reto, porque as demais cordas como eu já escrevi ficam a cargo dos outros dedos.

    2ª) Esse acorde pode ser enriquecido com uma 9ª, ou seja a adição da nota do#. O acorde ficará mais bonito e mais simples (Fig.2).

    Fig.1

    .....B.....
    \_________/
    |_|_|_|_|_|
    |_1_|_|_|_1
    |_|_|_|_|_|
    |_|_2_3_4_|
    |_|_|_|_|_|
    |_|_|_|_|_|

    Incline a mão e "grude" o cotovelo no corpo.


    Fig.2

    ....B9.....
    \_________/
    |_|_|_|_|_|
    |_1_|_|_1_1
    |_|_|_|_|_|
    |_|_3_4_|_|
    |_|_|_|_|_|
    |_|_|_|_|_|

    Coloque o dedo 2 encima do dedo 1 para um melhor desempenho da pestana.

      Enviar sua resposta para este assunto
              Tablatura   
      Responder tópico na versão original
       

      Tópicos relacionados a alguem pode me ajudar???