Dedilhado da música "Hoje a Noite não tem luar"

    Autor Mensagem
    Tales Fernandes
    Veterano
    # ago/05


    Se Alguém poder me passar o deilhado dessa música eu agradaço muito, pode ser no estilo PIMA que pra mim fica fácil. AH e sei que vai ter várias mensagen para mim treinar bastante ou ouvir bem a música mas não dá, eu sou meio devagar mesmo, então se alguém puder me ajudar...

    _Selina_
    Veterano
    # ago/05
    · votar


    Eu tinha mais deu problema no pc e perdi!!
    Mais vc tem que ser bom mesmo pois essa musica ñ e pra qualquer um ñ
    ex: na voz dos menudos era um lixo, mais na voz do renato" ficou linda!!

    hehe... =D

    Tales Fernandes
    Veterano
    # ago/05
    · votar


    Que Pena Que vc perdeu a música, mas mesmo assim: valew Selina.

    CaimDark
    Veterano
    # ago/05
    · votar


    Tales Fernandes

    Essa música é massa, bonita e é simples de tocar. Acho que foi a 4 ou 5 música que aprendi, e foi treinando ela que aprendi a dedilhar. Eu toco assim:


     G          Am         G/B            C    
    
    e--------------------------------3--------------0--------
    B---0------0---1------1---3----3---3-----1----1---1----------
    G--------0----------2--------0-------0------0-------0--------
    D------0----------2--------------------------------------
    A--------------0----------2--------------3----------------
    E---3---------------------------------------------------


    CaimDark
    Veterano
    # ago/05
    · votar


    Faltou espaço pro D:

    D
    
    e--2-----2-----------------------------------------------
    B------3---3---------------------------------------------
    G----2-------2-------------------------------------------
    D--0----------------------------------------------------
    A------------------------------------------------------
    E------------------------------------------------------


    É isso cara. Nunca fiz uma tab mas acho que é isso mesmo. essa música parece difícil, mas é bem simples, só precisa treinar um poquinho pra nao atrasar o acorde ou errar o dedilhado.

    Tem umas partes da música que é batida, mas acho que dá pra vc tirar só com a cifra e ouvindo. Se você tiver o video dele tocando no acústico tb é legal, que mostra muita coisa!

    Abraços!

    albertoellobo
    Veterano
    # ago/05
    · votar


    É só usar esse esquema do Caimdark que rola. A batida é a genérica "baixo, pausa, baixo, cima, pausa, cima, baixo, baixo.

    Tales Fernandes
    Veterano
    # ago/05
    · votar


    Muito obrigado pela atenção de vocês, imprimi as dicas e ja vou começar a praticar agora mesmo !!!!!

    CaimDark
    Veterano
    # ago/05
    · votar


    De nada. Qualquer coisa pergunta que tem um monte de gente aqui disposta a ajudar.

    abraços!

    albertoellobo
    Veterano
    # ago/05
    · votar


    Tales Fernandes
    Espero ter ter ajudado... vlw!
    URBANA LEGIO OMNIA VINCIT

      Enviar sua resposta para este assunto
              Tablatura   
      Responder tópico na versão original
       

      Tópicos relacionados a Dedilhado da música "Hoje a Noite não tem luar"