Duetos -Ramones

    Autor Mensagem
    PS2 Player
    Veterano
    # jun/05


    o professor meu passou uns duetos do Ramones, mas naum lembro a música.
    é assim
    A/D E
    só q naum lembro as casas d cada um
    agluém pode me ajudar?

    angus junior
    Veterano
    # jun/05
    · votar


    blitzkrieg bop?
    se for eu te falo

    PS2 Player
    Veterano
    # jun/05
    · votar


    ah eu naum sei cara.
    fala aí pra mim ver se é essa

    fabio_gravata
    Veterano
    # jun/05
    · votar


    duetos?????

    angus junior
    Veterano
    # jun/05
    · votar


    eh aquela hey ho lets go
    A5

    e------------------------------------------------------
    B------------------------------------------------------
    G------------------------------------------------------
    D------7------------------------------------------------
    A------7------------------------------------------------
    E------5------------------------------------------------


    D5

    e------------------------------------------------------
    B------------------------------------------------------
    G------7------------------------------------------------
    D------7------------------------------------------------
    A------5------------------------------------------------
    E------------------------------------------------------

     E5
    
    e------------------------------------------------------
    B------------------------------------------------------
    G------9-----------------------------------------------
    D------9------------------------------------------------
    A------7------------------------------------------------
    E------------------------------------------------------


    __Asda__
    Veterano
    # jun/05
    · votar


    heuaheuaheuaheuhaeuhaueha.............
    eh aquela hey ho lets go
    kkkkkkkkkkkkkkkkkkkkk

    PS2 Player
    Veterano
    # jun/05
    · votar


    é essa mesma. valeu cara

    angus junior
    Veterano
    # jun/05
    · votar


    uhauhahua

      Enviar sua resposta para este assunto
              Tablatura   
      Responder tópico na versão original
       

      Tópicos relacionados a Duetos -Ramones