ae galera porfavor coloquem modelos de arpeigios para mim treinar valeus

    Autor Mensagem
    andersonandrei
    Veterano
    # abr/05


    ae galera porfavor coloquem modelos de arpeigios para mim treinar valeus

    andersonandrei
    Veterano
    # abr/05
    · votar


    ajudem por favor

    BlaCk LaBeL
    Veterano
    # abr/05
    · votar


    http://forum.cifraclub.com.br/busca.php

    angus junior
    Veterano
    # abr/05
    · votar


    exemplo em Am e A
    
    e----------------------------12--------------------------
    B-----------------------13--------13-----------------------
    G------------------14------------------14------------------
    D--------------14--------------------------14--------------
    A-----12--15-----------------------------------15---12---------
    E------------------------------------------------------



    e--------------------------12----------------------------
    B--------------------14---------14-------------------------
    G----------------14------------------14--------------------
    D--------11--14--------------------------14--11----------------
    A----12-------------------------------------------12-------
    E------------------------------------------------------


    xDDDD

    BlaCk LaBeL
    Veterano
    # abr/05
    · votar


    Mas escreva certo ao usar a busca: Arpejos ou Arpeggios. :)

    hypervirus
    Veterano
    # abr/05 · Editado por: hypervirus
    · votar


    Em<pre>
    e----------------7-12-7--------------------------------
    B--------------8--------8------------------------------
    G------------9------------9----------------------------
    D----------9----------------9--------------------------
    A-----7-10--------------------10-----------------------
    E------------------------------------------------------
    </pre>
    isso é Em memo né?

    angus junior
    Veterano
    # abr/05
    · votar


    hypervirus
    isso ae

    BlaCk LaBeL
    Veterano
    # abr/05
    · votar


    hypervirus
    Sim.. é um arpejo de Em.

    lvbox
    Veterano
    # abr/05
    · votar


    Alguem ai me diz a utilidade dos arpejos?
    eu particularmente acho um som meio tosco, até que me provem o contrário!

    Urubu Rei
    Veterano
    # abr/05
    · votar


    lvbox

    escute malmsteen q tu ve.

    BlaCk LaBeL
    Veterano
    # abr/05
    · votar


    lvbox
    "Alguem ai me diz a utilidade dos arpejos?"

    A mesma utilidade de bends... vibratos... ligados...

    angus junior
    Veterano
    # abr/05
    · votar


    Arra!
    vai dar briga
    lvbox
    som meio tosco,
    n vo nem fala nd

    lvbox
    Veterano
    # abr/05
    · votar


    angus junior
    pode falar cara, foi só uma opinião pessoal, eu queria que alguém me mostrasse algo bonito com o uso dos arpejos, só isso!

    BlaCk LaBeL
    Veterano
    # abr/05
    · votar


    lvbox
    Tem milhares de bons exemplos... de Mark Knopfler à Malmsteen.

    Urubu Rei
    Veterano
    # abr/05
    · votar


    Malmsteen \o/

    Metal_X
    Veterano
    # abr/05
    · votar


    lvbox

    Pega Sea Of Lies do Symphony X, puta arpejaum c/ tapping q caiu mt bem na base, perfeito

    Praxis
    Veterano
    # abr/05
    · votar


    Para MIM TREINAR? voce devia treinar sua LINGUA PORTUGUESA! HAHAHAHAHAHAH

    lvbox
    Veterano
    # abr/05
    · votar


    Urubu Rei
    BlaCk LaBeL
    Metal_X

    Valeu, obrigado pelas dicas!

    Praxis
    Veterano
    # abr/05 · Editado por: Praxis
    · votar


    lvbox > arpejos assim como vibratos bends etc, soh terao ultilidade se voce souber encaixa-los na música.

    maggie
    Veterana
    # abr/05
    · votar


    Relação dos exercícios postados no Fórum

    Paul Miander
    Veterano
    # abr/05
    · votar


    pra EU treinar... não MIM

    adrian_smith_18
    Veterano
    # abr/05
    · votar


    voces jah viram os videos do ozielzinho??
    cara muito irados, ele toca inteira far beyond the sun do malmsteen
    ali tem um otimo exemplo de utilizacao de arpegios
    www.ozielzinho.com.br

      Enviar sua resposta para este assunto
              Tablatura   
      Responder tópico na versão original
       

      Tópicos relacionados a ae galera porfavor coloquem modelos de arpeigios para mim treinar valeus