over driver ou distorção

    Autor Mensagem
    nudson
    Veterano
    # jun/03


    [b][/b]qual e o mais indicado para harcore ?

    nudson
    Veterano
    # jun/03
    · votar


    [b][/b]o que sao power chords ?? alquem me responda por favor porra !

    DUFF OPLON
    Veterano
    # jun/03
    · votar


    ME PARECE QUE POWER CHORDS SÃO OS ACORDES FORMADOS PELAS CORDAS MAIS GRAVES. EX
       G      A      B    C    D    E     F
    
    e------------------------------------------------------
    B------------------------------------------------------
    G------------------------5----7----9-------------------
    D----5-------7------9----5----7----9-----3-------------
    A----5-------7------9----3----5----7-----3-------------
    E----3-------5------7----X----X----X-----1--------------


    FALOW

    Overdoser
    Veterano
    # jun/03
    · votar


    powerchords sao acordes formados pela tonica e quinta justa, excluindo-se a terça

    igual ao duff falou:


    G
    e------------------------------------------------
    B-----------------------------------------------
    G-------------------------------------------------
    D-------5---------------------------------------
    A-------5----------------------------------------
    E-------3-----------------------------------------


    no caso do sol (G) a tonica G e a quinta justa D

    nao existem PCs maiores ou menores porque nao ha a terça

    Toupeira
    Veterano
    # jun/03
    · votar


    mas quais dissonantes podem sair dos power chords?

      Enviar sua resposta para este assunto
              Tablatura   
      Responder tópico na versão original
       

      Tópicos relacionados a over driver ou distorção