Solo de Paranoid - Black Sabbath

    Autor Mensagem
    Ganso
    Veterano
    # jun/03


    Ae galera, alguém sabe o solo do meio certinho da Paranoid do Black Sabbath? Eu tirei de ouvido mas tem uma parte bem rápida que é fo##!!! Se alguém tiver posta aí ou manda por e-mail: gansomaluco@bol.com.br
    Falou!!

    Ganso
    Veterano
    # jun/03
    · votar


    .

    caiohleal
    Veterano
    # jun/03
    · votar


    Ganso
    improvise em cima da escala

    Kcete
    Veterano
    # jun/03
    · votar


    soh.eu faço isso agora........nem sei escala,soh sei a penta , mas aí eu vou pegando mais ou menos na raça, aí fica na moral, pego o feeling da musica e saio improvisando no braço todo..... mas aí eu tiro as partes principais ou mais maneiras e fico solando um temapo.uma vez na minha banda, agente ficvou tocando paranoid 18 MIN!!! foi muito foda, tipo, fiquei solando muito tempo, foi quase uma jam dentro de paranoid....muito irado.......foi no dia da ´´entrevista´´ pra eu entrar na banda........eles deixaram eu solar aí eu fui, os malucos ficaram bolados .....

    JaCaMaN
    Veterano
    # jun/03
    · votar


    esse é um dos unicos solos q eu toco perfeito

    Errol
    Veterano
    # jun/03
    · votar


    Ganso
    Na Guitar Class nº25, Fevereiro de 2003 com Joe Perry na capa tem a transcrição completa, e na GuitarClass com Tommy Yomi na capa tb tem a transcrição completa.

    Se eu tiver tempo eu passo pro pc no fim de semana.

    Errol
    Veterano
    # jun/03 · Editado por: Errol
    · votar


    Ganso
    Ta aí cara, como eu falei, meu icq é 121328594, eu tenho o arquivo midi desse solo se você quiser eu te passo pelo icq.
    Qualque dúvida é só postar aee.

    Paranoid Solo
    
    Transcrição: Fernando Nardi
    Autor: Osbourne, Iommi, Butler, Ward

    |-------------||-------------||----------------||-------------|
    |-------------||-------------||----------------||-------------|
    |-9b-(9)p7h9--||-9-7-9-7-----||----------------||-------------|
    |-------------||---------9p7-||-5h7-5h7--------||-5-----------|
    |-------------||-------------||---------5h7-7--||---7---7-----|
    |-------------||-------------||----------------||-------------|

    |----------------||------------------------||------------------|
    |----------------||-----8-10-10b(10)p8-10b-||-(10)b8-10-8------|
    |---------7h9-9--||-7h9--------------------||-------------9-9--|
    |-5h7-7h9--------||------------------------||------------------|
    |----------------||------------------------||------------------|
    |----------------||------------------------||------------------|

    |---------------12-----||---------------||-15b-15b-15b(15)p12-15p12--- -|
    |------------12----15--||-15b-15b-15-12-||--------------------------15 -|
    |-7h9-9-9s14-----------||---------------||---------------------------- -|
    |----------------------||---------------||---------------------------- -|
    |----------------------||---------------||---------------------------- -|
    |----------------------||---------------||---------------------------- -|

    |-15p12-----------------12----------||-------------------|
    |-------15-15p12-----------15p12----||-------------------|
    |----------------14-14b----------14-||-14p12----12b(12)--|
    |-----------------------------------||-------14----------|
    |-----------------------------------||-------------------|
    |-----------------------------------||-------------------|


    |---------------------------------||-----------------------------||--- --------------------||----------------|
    |---------------------------------||-----------------------------||--- --------------------||----------------|
    |-14b-12h14p12----12--------------||-----------------------------||--- ----------12--------||----------------|
    |--------------14----14-14p12-----||-12--------------------------||-12 ----12-14----14-12--||-14-12------14--|
    |-----------------------------14--||----12-10-12p10----10h12h14--||--- --------------------||----------------|
    |---------------------------------||----------------12-----------||--- --------------------||----------------|

    Fonte: Revista Guitar Class, Fevereiro 2003 nº25, pág. 95

    b= Bend
    s= Slide
    h= Hammer On
    p= Pull Off


    Battousai
    Veterano
    # jun/03
    · votar


    meu entra em www.mysongbook.com
    www.ultimate-guitar.com e pega o solo

    Ganso
    Veterano
    # jun/03
    · votar


    Errol
    Battousai[b][/b]

    Valeu pela ajuda galera, minhas dúvidas estão tiradas agora, brigadão.

    Battousai

    Acho que encontrei mais um fissurado em Samurai X.

    LeDenN
    Veterano
    # set/05
    · votar


    Errol
    na minha guitar classs do iommi nem ta assim nessa aih tem muito hammer e pull off

      Enviar sua resposta para este assunto
              Tablatura   
      Responder tópico na versão original
       

      Tópicos relacionados a Solo de Paranoid - Black Sabbath