algo interessante para treinar bends(tablatura)

    Autor Mensagem
    michael angelo
    Veterano
    # fev/05 · Editado por: michael angelo


    Say It Again Blues







    E||---------------------|-----------------8--10--|-------------------- ----|
    B||---------------8~----|--10b----------x--------|--10b-8~----------8~ ----|
    G||-------------9----x--|------------------------|----------------9--- -x--|
    D||---------------------|------------------------|-------------------- ----|
    A||---------------------|------------------------|-------------------- ----|
    E||---------------------|------------------------|-------------------- ----|



    ---------8--10----------------|-------10b-----10--8--------|
    --10b-x---------11b-8--10~----|--8-------------------11b---|
    ---------------------------9--|----------------------------|
    ------------------------------|----------------------------|
    ------------------------------|----------------------------|
    ------------------------------|----------------------------|



    -----------------------|---------8--10----------------|
    --8~---------10-----8~-|--11b-x---------11~-8--10-----|
    -----------------9-----|---------------------------9--|
    -----------------------|------------------------------|
    -----------------------|------------------------------|
    -----------------------|------------------------------|



    ---------------10---------|----------x-----------|--------3--5-------- -----|
    --8~-------10b-----10b-8~-|----------x--3--5~-3--|--5b-x--------5b-3-- --3--|
    --------------------------|----------x-----------|-------------------- -----|
    --------------------------|----------------------|-------------------- -----|
    --------------------------|----------------------|-------------------- -----|
    --------------------------|----------------------|-------------------- -----|



    ------------------------------|---------------------3-----------|
    ----------------3-------------|------3--6h-3--5--------3-----3--|
    --6h5h3---5-----4-------------|------------------5--------5-----|
    --------5----5-------5-----5--|---------------------------------|
    ------------------------7-----|---------------------------------|
    ------------------------------|---------------------------------|



    -------------------------|-----------------8--10--|------------------- -----|
    -------------------8~----|--10b----------x--------|--10b-8~----------8 ~----|
    --4--------------9----x--|------------------------|----------------9-- --x--|
    -----5-------------------|------------------------|------------------- -----|
    --------5--5-------------|------------------------|------------------- -----|
    -------------------------|------------------------|------------------- -----|



    ---------8--10----------------|-------10b-----10--8--------|
    --10b-x---------11b-8--10~----|--8-------------------11b---|
    ---------------------------9--|----------------------------|
    ------------------------------|----------------------------|
    ------------------------------|----------------------------|
    ------------------------------|----------------------------|



    -----------------------|---------8--10----------------|
    --8~---------10-----8~-|--11b-x---------11~-8--10-----|
    -----------------9-----|---------------------------9--|
    -----------------------|------------------------------|
    -----------------------|------------------------------|
    -----------------------|------------------------------|



    ---------------10---------|----------x-----------|--------3--5-------- -----|
    --8~-------10b-----10b-8~-|----------x--3--5~-3--|--5b-x--------5b-3-- --3--|
    --------------------------|----------x-----------|-------------------- -----|
    --------------------------|----------------------|-------------------- -----|
    --------------------------|----------------------|-------------------- -----|
    --------------------------|----------------------|-------------------- -----|



    ------------------------------|---------------------3-----------|
    ----------------3-------------|------3--6h-3--5--------3-----3--|
    --6h5h3---5-----4-------------|------------------5--------5-----|
    --------5----5-------5-----5--|---------------------------------|
    ------------------------7-----|---------------------------------|
    ------------------------------|---------------------------------|



    -------------------------|-----------------8--10--|------------------- -----|
    -------------------8~----|--10b----------x--------|--10b-8~----------8 ~----|
    --4--------------9----x--|------------------------|----------------9-- --x--|
    -----5-------------------|------------------------|------------------- -----|
    --------5--5-------------|------------------------|------------------- -----|
    -------------------------|------------------------|------------------- -----|



    ---------8--10----------------|-------10b-----10--8--------|
    --10b-x---------11b-8--10~----|--8-------------------11b---|
    ---------------------------9--|----------------------------|
    ------------------------------|----------------------------|
    ------------------------------|----------------------------|
    ------------------------------|----------------------------|



    -----------------------|---------8--10----------------|
    --8~---------10-----8~-|--11b-x---------11~-8--10-----|
    -----------------9-----|---------------------------9--|
    -----------------------|------------------------------|
    -----------------------|------------------------------|
    -----------------------|------------------------------|



    ---------------10---------|----------x-----------|--------3--5-------- -----|
    --8~-------10b-----10b-8~-|----------x--3--5~-3--|--5b-x--------5b-3-- --3--|
    --------------------------|----------x-----------|-------------------- -----|
    --------------------------|----------------------|-------------------- -----|
    --------------------------|----------------------|-------------------- -----|
    --------------------------|----------------------|-------------------- -----|



    ------------------------------|---------------------3-----------|
    ----------------3-------------|------3--6h-3--5--------3-----3--|
    --6h5h3---5-----4-------------|------------------5--------5-----|
    --------5----5-------5-----5--|---------------------------------|
    ------------------------7-----|---------------------------------|
    ------------------------------|---------------------------------|



    ---------------------------|-----------------11--13--|
    --------------------11~----|--13b----------x---------|
    --4--------------12-----x--|-------------------------|
    -----5---------------------|-------------------------|
    --------5--5---------------|-------------------------|
    ---------------------------|-------------------------|



    ---------------------------|---------11--13------------------|
    --13b-11~-----------11~----|--13b-x----------14b-11--13~-----|
    -----------------12-----x--|-----------------------------12--|
    ---------------------------|---------------------------------|
    ---------------------------|---------------------------------|
    ---------------------------|---------------------------------|



    --------13b-----13--11--------|--------------------------|
    --11--------------------14b---|--11~---------13------11~-|
    ------------------------------|------------------12------|
    ------------------------------|--------------------------|
    ------------------------------|--------------------------|
    ------------------------------|--------------------------|



    ---------11--13------------------|----------------13----------|
    --14b-x----------14~-11--13------|--11~-------13b-----13b-11~-|
    -----------------------------12--|----------------------------|
    ---------------------------------|----------------------------|
    ---------------------------------|----------------------------|
    ---------------------------------|----------------------------|



    ----------x-----------|--------6--8-------------|
    ----------x--6--8~-6--|--8b-x--------8b-6----6--|
    ----------x-----------|-------------------------|
    ----------------------|-------------------------|
    ----------------------|-------------------------|
    ----------------------|-------------------------|



    -------------------------------|---------------------6-----------|
    ----------------6--------------|------6--9h-6--8--------6-----6--|
    --9h8h6---8-----7--------------|------------------8--------8-----|
    --------8----8-------8------8--|---------------------------------|
    ------------------------10-----|---------------------------------|
    -------------------------------|---------------------------------|



    --------------------------|--------6--8-------------|
    --------------x--6--8--6--|--8b-x--------8b-6----6--|
    --7-----------x-----------|----------------------

    marcio_zav
    Veterano
    # fev/05
    · votar


    Pego do guitar pro ne!?

    michael angelo
    Veterano
    # fev/05
    · votar


    esse arquivo tem no guitar pro demo files achei interessante pela sonoridade e pelos bends nao serem dificeis muito bom para quem quer treinar

    se alguem puder arrumar a tab eu agradeco e que sou meio burro e nao sei arrumar

    michael angelo
    Veterano
    # fev/05
    · votar


    marcio_zav

    sim mas e muito loco essa musiquinha

    marcio_zav
    Veterano
    # fev/05
    · votar


    michael angelo
    boa msm........a base tem uns acordes bem massa tb

    oak
    Veterano
    # fev/05 · Editado por: oak
    · votar


    michael angelo

    poe a parte da tab entre <t> e </t>
    (troca <> por [])

    michael angelo
    Veterano
    # fev/05
    · votar


    deu nao

    oak
    Veterano
    # fev/05
    · votar


    oxi, como nao, quando vc poe isso
    fica assim

    clica no botaozinho TAB que vc vai entender a tag

    michael angelo
    Veterano
    # fev/05
    · votar


                                                                                            
    
    E||---------------------|-----------------8--10--|-------------------- ----|
    B||---------------8~----|--10b----------x--------|--10b-8~----------8~ ----|
    G||-------------9----x--|------------------------|----------------9--- -x--|
    D||---------------------|------------------------|-------------------- ----|
    A||---------------------|------------------------|-------------------- ----|
    E||---------------------|------------------------|-------------------- ----|



    ---------8--10----------------|-------10b-----10--8--------|
    --10b-x---------11b-8--10~----|--8-------------------11b---|
    ---------------------------9--|----------------------------|
    ------------------------------|----------------------------|
    ------------------------------|----------------------------|
    ------------------------------|----------------------------|



    -----------------------|---------8--10----------------|
    --8~---------10-----8~-|--11b-x---------11~-8--10-----|
    -----------------9-----|---------------------------9--|
    -----------------------|------------------------------|
    -----------------------|------------------------------|
    -----------------------|------------------------------|



    ---------------10---------|----------x-----------|--------3--5-------- -----|
    --8~-------10b-----10b-8~-|----------x--3--5~-3--|--5b-x--------5b-3-- --3--|
    --------------------------|----------x-----------|-------------------- -----|
    --------------------------|----------------------|-------------------- -----|
    --------------------------|----------------------|-------------------- -----|
    --------------------------|----------------------|-------------------- -----|



    ------------------------------|---------------------3-----------|
    ----------------3-------------|------3--6h-3--5--------3-----3--|
    --6h5h3---5-----4-------------|------------------5--------5-----|
    --------5----5-------5-----5--|---------------------------------|
    ------------------------7-----|---------------------------------|
    ------------------------------|---------------------------------|



    -------------------------|-----------------8--10--|------------------- -----|
    -------------------8~----|--10b----------x--------|--10b-8~----------8 ~----|
    --4--------------9----x--|------------------------|----------------9-- --x--|
    -----5-------------------|------------------------|------------------- -----|
    --------5--5-------------|------------------------|------------------- -----|
    -------------------------|------------------------|------------------- -----|



    ---------8--10----------------|-------10b-----10--8--------|
    --10b-x---------11b-8--10~----|--8-------------------11b---|
    ---------------------------9--|----------------------------|
    ------------------------------|----------------------------|
    ------------------------------|----------------------------|
    ------------------------------|----------------------------|



    -----------------------|---------8--10----------------|
    --8~---------10-----8~-|--11b-x---------11~-8--10-----|
    -----------------9-----|---------------------------9--|
    -----------------------|------------------------------|
    -----------------------|------------------------------|
    -----------------------|------------------------------|



    ---------------10---------|----------x-----------|--------3--5-------- -----|
    --8~-------10b-----10b-8~-|----------x--3--5~-3--|--5b-x--------5b-3-- --3--|
    --------------------------|----------x-----------|-------------------- -----|
    --------------------------|----------------------|-------------------- -----|
    --------------------------|----------------------|-------------------- -----|
    --------------------------|----------------------|-------------------- -----|



    ------------------------------|---------------------3-----------|
    ----------------3-------------|------3--6h-3--5--------3-----3--|
    --6h5h3---5-----4-------------|------------------5--------5-----|
    --------5----5-------5-----5--|---------------------------------|
    ------------------------7-----|---------------------------------|
    ------------------------------|---------------------------------|



    -------------------------|-----------------8--10--|------------------- -----|
    -------------------8~----|--10b----------x--------|--10b-8~----------8 ~----|
    --4--------------9----x--|------------------------|----------------9-- --x--|
    -----5-------------------|------------------------|------------------- -----|
    --------5--5-------------|------------------------|------------------- -----|
    -------------------------|------------------------|------------------- -----|



    ---------8--10----------------|-------10b-----10--8--------|
    --10b-x---------11b-8--10~----|--8-------------------11b---|
    ---------------------------9--|----------------------------|
    ------------------------------|----------------------------|
    ------------------------------|----------------------------|
    ------------------------------|----------------------------|



    -----------------------|---------8--10----------------|
    --8~---------10-----8~-|--11b-x---------11~-8--10-----|
    -----------------9-----|---------------------------9--|
    -----------------------|------------------------------|
    -----------------------|------------------------------|
    -----------------------|------------------------------|



    ---------------10---------|----------x-----------|--------3--5-------- -----|
    --8~-------10b-----10b-8~-|----------x--3--5~-3--|--5b-x--------5b-3-- --3--|
    --------------------------|----------x-----------|-------------------- -----|
    --------------------------|----------------------|-------------------- -----|
    --------------------------|----------------------|-------------------- -----|
    --------------------------|----------------------|-------------------- -----|



    ------------------------------|---------------------3-----------|
    ----------------3-------------|------3--6h-3--5--------3-----3--|
    --6h5h3---5-----4-------------|------------------5--------5-----|
    --------5----5-------5-----5--|---------------------------------|
    ------------------------7-----|---------------------------------|
    ------------------------------|---------------------------------|



    ---------------------------|-----------------11--13--|
    --------------------11~----|--13b----------x---------|
    --4--------------12-----x--|-------------------------|
    -----5---------------------|-------------------------|
    --------5--5---------------|-------------------------|
    ---------------------------|-------------------------|



    ---------------------------|---------11--13------------------|
    --13b-11~-----------11~----|--13b-x----------14b-11--13~-----|
    -----------------12-----x--|-----------------------------12--|
    ---------------------------|---------------------------------|
    ---------------------------|---------------------------------|
    ---------------------------|---------------------------------|



    --------13b-----13--11--------|--------------------------|
    --11--------------------14b---|--11~---------13------11~-|
    ------------------------------|------------------12------|
    ------------------------------|--------------------------|
    ------------------------------|--------------------------|
    ------------------------------|--------------------------|



    ---------11--13------------------|----------------13----------|
    --14b-x----------14~-11--13------|--11~-------13b-----13b-11~-|
    -----------------------------12--|----------------------------|
    ---------------------------------|----------------------------|
    ---------------------------------|----------------------------|
    ---------------------------------|----------------------------|



    ----------x-----------|--------6--8-------------|
    ----------x--6--8~-6--|--8b-x--------8b-6----6--|
    ----------x-----------|-------------------------|
    ----------------------|-------------------------|
    ----------------------|-------------------------|
    ----------------------|-------------------------|



    -------------------------------|---------------------6-----------|
    ----------------6--------------|------6--9h-6--8--------6-----6--|
    --9h8h6---8-----7--------------|------------------8--------8-----|
    --------8----8-------8------8--|---------------------------------|
    ------------------------10-----|---------------------------------|
    -------------------------------|---------------------------------|



    --------------------------|--------6--8-------------|
    --------------x--6--8--6--|--8b-x--------8b-6----6--|
    --7-----------x-----------|-------------------------|
    -----8--------x-----------|-------------------------|
    --------8--8--------------|-------------------------|
    --------------------------|----------------------

    michael angelo
    Veterano
    # fev/05
    · votar


    valeu ai vei

      Enviar sua resposta para este assunto
              Tablatura   
      Responder tópico na versão original
       

      Tópicos relacionados a algo interessante para treinar bends(tablatura)