Exercicios

    Autor Mensagem
    vinicius mello
    Veterano
    # dez/04


    Olá pessoal sou nvo no fórum e gostaria de saber onde tem uns exercicios de agilidade...!


    Vinicius!!!!

    BlaCk LaBeL
    Veterano
    # dez/04
    · votar


    vinicius mello
    Aqui tem um mega tópico com exercícios:
    http://forum.cifraclub.com.br/forum/3/21206/

    vinicius mello
    Veterano
    # dez/04
    · votar


    Obrigado,vc sabe onde tem escalas pentatonicas e arpejos X7m?

    italo_angra
    Veterano
    # dez/04
    · votar


    X7m
    fundamental
    
    e-2----------6-------------------------------------------
    B----------5-------------------------------------------
    G----2------6-------------------------------------------
    D----2---4----------------------------------------------
    A--------4----------------------------------------------
    E-2---------6--------------------------------------------


    1º INVERSSAO


    e-2----------6-------------------------------------------
    B---------4---------------------------------------------
    G-----3------6-------------------------------------------
    D-------4----------------------------------------------
    A-------4----6-------------------------------------------
    E-2----------6-------------------------------------------


    2º INVERSSAO


    e-2---------5--------------------------------------------
    B-----3-------------------------------------------------
    G--2-----4---------------------------------------------
    D--------4----------------------------------------------
    A--2--------5--------------------------------------------
    E--2--------5--------------------------------------------


    3º INVERSSAO

    NAUM LEMBRO
    [/T]

    BlaCk LaBeL
    Veterano
    # dez/04
    · votar


    vinicius mello
    Aqui tem um mega tópico sobre escalas:
    http://forum.cifraclub.com.br/forum/3/44660/

    Para arpejos, dê um olhadinha na busca:
    http://forum.cifraclub.com.br/busca.php

    []´s

      Enviar sua resposta para este assunto
              Tablatura   
      Responder tópico na versão original
       

      Tópicos relacionados a Exercicios