velocidade!!!!

    Autor Mensagem
    Pagodeiro SA
    Veterano
    # nov/04


    bem ei aqui um exercício q muito me ajudou a desenvolver a velocidade...ele por enquanto, não precisa de tempo...vcs toqquem no tempo q acharem melhor...depois quando pegarem o exercicio legal, toquem seis notas por tempo , um abraço...

    e------------------------------------------------------
    B------------------------------------------------------
    G------------------------------------------------------
    D--------------------------------------4-5-7-5-7-5-4---------
    A--------------------3-5-7-5-3-5-7------------------------
    E--2-3-5-3-2-3-5-3-2--------------------------------------------

    e-------------------------------5-7-9-7-5-7-9----------------
    B-----------------5-7-8-7-5-7-8------------------------------
    G--5-7-8-7-5-7-8---------------------------------------------
    D------------------------------------------------------
    A------------------------------------------------------
    E------------------------------------------------------

    e--9-10-11-12-11-10-9----------------------------------------
    B-----------------------12-11-10-9-10-11-12------------------
    G------------------------------------------------------
    D------------------------------------------------------
    A------------------------------------------------------
    E------------------------------------------------------



    vai fazendo esse shape até o 22 ou 24 e depois volta...

    The New Guy
    Veterano
    # nov/04
    · votar


    u ki tah mi ajudano eh esse aki...


    e---------------------------------------1-2-3-4--------
    B--------------------------------1-2-3-4---------------
    G------------------------1-2-3-4-----------------------
    D-----------------1-2-3-4------------------------------
    A---------1-2-3-4--------------------------------------
    E-1-2-3-4----------------------------------------------


    The New Guy
    Veterano
    # nov/04
    · votar


    (cont.)

    e---5-4-3-2--------------------------------------------
    B-----------5-4-3-2------------------------------------
    G-------------------5-4-3-2----------------------------
    D---------------------------5-4-3-2--------------------
    A-----------------------------------5-4-3-2------------
    E------------------------------------------5-4-3-2-----


    The New Guy
    Veterano
    # nov/04
    · votar



    e-----------------------------------------3-4-5-6------
    B----------------------------------3-4-5-6-------------
    G--------------------------3-4-5-6---------------------
    D------------------3-4-5-6-----------------------------
    A----------3-4-5-6-------------------------------------
    E--3-4-5-6---------------------------------------------


    The New Guy
    Veterano
    # nov/04
    · votar



    e-7-6-5-4----------------------------------------------
    B--------7-6-5-4---------------------------------------
    G----------------7-6-5-4-------------------------------
    D-----------------------7-6-5-4------------------------
    A-------------------------------7-6-5-4----------------
    E--------------------------------------7-6-5-4---------


    The New Guy
    Veterano
    # nov/04
    · votar



    e---------------------------------------5-6-7-8--------
    B-------------------------------5-6-7-8----------------
    G------------------------5-6-7-8-----------------------
    D----------------5-6-7-8-------------------------------
    A---------5-6-7-8--------------------------------------
    E-5-6-7-8----------------------------------------------


    The New Guy
    Veterano
    # nov/04
    · votar



    e-9-8-7-6----------------------------------------------
    B---------9-8-7-6--------------------------------------
    G----------------9-8-7-6-------------------------------
    D-----------------------9-8-7-6------------------------
    A-------------------------------9-8-7-6----------------
    E---------------------------------------9-8-7-6--------


    The New Guy
    Veterano
    # nov/04
    · votar


    aih volta tudo...entendeu o exercicio?

    John Johns
    Veterano
    # nov/04
    · votar


    The New Guy

    com certeza o 1234 é p melhor!!

    otro legal é


    e1h2p1p2-1h3p1p3-1h4p1h4-1h3p1h3-1h2p1h2-2h3p2h3-2h4p2h4-2h3p2h3-3h4p3 h4---------------------------
    B------------------------------------------------------
    G------------------------------------------------------
    D------------------------------------------------------
    A------------------------------------------------------
    E------------------------------------------------------


    facas em todas cordas

    Obs; 1: usa na casa 1, o dedo indicador; na 2 do meio; na 3 o anelar e na 4, o dedinho;
    2: h= hammer on e p= pull off

    The New Guy
    Veterano
    # nov/04
    · votar


    Bom eu ja sei dessas informacoes dos dedos e ja sei u ki ki eh hammer on, pull off, bend, tapping, ligado..uma porrada d coisa...

    Reinaldo Camargo Filho
    Veterano
    # nov/04 · Editado por: Reinaldo Camargo Filho
    · votar


    Um que eu acho melhor que eu usava, agora nem uso, pois num to nem aí com velocidade. :p.

    É esse aqui oh q tem no cifraclub. Só que eu modifiquei.



    e----------------------------------10987652431648681211920
    B---------------------------------9--------------------
    G-------1234--------1234---------8---------------------
    D------2----3------2----3-------7----------------------
    A-----3------2----3------2-----6-----------------------
    E-1234--------1234--------12345------------------------


    The New Guy
    Veterano
    # nov/04
    · votar


    bom..tem esse:

    e------------------------------------------------------
    B------------------------------------------------------
    G------------------------------------------------------
    D------------------------------------------------------
    A--------5-----------6-----------7-----------8---------
    E--5-6-8---8-6-5-6-8---8-6-5-6-8---8-6-5-6-8---8-6-5---

    faz issu em todas as cordas

    The New Guy
    Veterano
    # nov/04
    · votar


    bom..tem esse:

    e------------------------------------------------------
    B------------------------------------------------------
    G------------------------------------------------------
    D------------------------------------------------------
    A--------5-----------6-----------7-----------8---------
    E--5-6-8---8-6-5-6-8---8-6-5-6-8---8-6-5-6-8---8-6-5---

    faz issu em todas as cordas

    Metalhero
    Veterano
    # nov/04
    · votar


    The New Guy
    A velocidade nao esta so ligada a exercicios a velocidade é 50% de treino com esses exercicios e 50% de treino pra mao direita , como segurar a palheta , como tocar e etc....!!!
    nao adianta voce treinar esses exercicios cometendo erros para com sua mao direita!!!!

    The New Guy
    Veterano
    # nov/04
    · votar


    Metalhero
    Algeum aki mencionou erros?eu nao vi nada...eu sei segurar a palheta..pode ate ser moedinha..algum pedaco de plastico..mas eu sei segurar...eu sei tocar tb..si estar se perguntando...erros eu nao cometo nesses exercicios...o ki eu preciso eh velocidade...!

    Carlos guitar man
    Veterano
    # jun/05
    · votar


    http://s47.yousendit.com/d.aspx?id=0FFDAOSIDDN051S1BJGKJMVLTK


    galera vem este cara tocar! neste video

      Enviar sua resposta para este assunto
              Tablatura   
      Responder tópico na versão original
       

      Tópicos relacionados a velocidade!!!!