Suicide Solution

    Autor Mensagem
    Kamelot
    Veterano
    # nov/04


    alguem tem a tab certa do Suicide Solution do Ozzy?
    nao adianta guitar pro q o meu ta dando pau.
    vale

    srvjhti
    Veterano
    # nov/04
    · votar


    O kbça, tu sabe onde eu consigo o guitar pro (qual site)?
    E tbm onde eu consigo tab além do cifraclub?

    Sobre a tua pergunta, até posso tentar encontrar pra ti cara.
    Valeu a atenção!!!

    nothing else matters
    Veterano
    # nov/04 · Editado por: nothing else matters
    · votar


    srvjhti
    [url=http://www.mysongbook.com
    ]www.mysongbook.com
    [/url]

    Kamelot
                              Suicide Solution (Live)                             
    


    Ozzy Osbourne
    Randy
    From Tribute - with extended solo




    E||------------|--------------------------|----------------------|
    B||------------|--------------------------|----------------------|
    G||------------|--2------5/---0--2--------|--5/---0--2-----------|
    D||------------|--2------5/---0--2--------|--5/---0--2-----------|
    A||------------|--0--0-0--------------0-0-|----------------------|
    E||--20/-------|--------------------------|---------------3~-----|



    ------------------------|----------------------|---------------------- ---|
    ------------------------|----------------------|---------------------- ---|
    --2----5/---0--2--------|--5/---0--2----5------|--2-----5/---0--2----- ---|
    --2----5/---0--2--------|--5/---0--2-----------|--2-----5/---0--2----- ---|
    --0-----------------0-0-|----------------------|-----0---------------0 -0-|
    ------------------------|----------------------|---------------------- ---|



    ---------------------------|-----------------------------|
    ---------------------------|-----------------------------|
    --5/---0--2----2-----------|--------5/---0--2------------|
    --5/---0--2----2--0h1h0----|--2-----5/---0--2------0h2h0-|
    ------------------------3--|--0--x---------------0-------|
    ---------------------------|-----------------------------|



    ----------------------------|------------------------|---------------- ------|
    ----------------------------|------------------------|---------------- ------|
    --5/---0--2-----------------|--2/---5/---0--2--------|--5/---0--2----2 ------|
    --5/---0--2--0--1--0h1h0----|-------5/---0--2--------|--5/---0--2----- ------|
    -------------------------3--|--------------------0-0-|---------------- ------|
    ----------------------------|------------------------|---------------- ------|



    -------------------------|----------------------|--------------------- ---|
    -------------------------|-----------3----------|--------------------- ---|
    --2--2--5/---0--2--------|-----------0----------|--------5-----5/-7~-- ---|
    --2--2--5/---0--2--------|--9--7--5--0----------|--------5-----5/-7~-- ---|
    --0--0---------------0-0-|--7--5--3-------------|-----------0--------- ---|
    -------------------------|-----------3----------|--5--3--------------- ---|



    ----------------------|---------------------------|------------------- -----|
    ----------------------|---------------------------|------------------- -----|
    --0-------2----2------|--2------5-----5--5~-------|--0--------2------- -----|
    --0-------2-----------|--2------5-----5--5~-------|--0--------2------- -----|
    ----------0-----------|--0--0-0----0----------0-0-|-----------0----17/ -----|
    -------3b-------------|---------------------------|-----0--3---------- -----|



    -------------------------|------------------------------------------|

    -------------------------|------------------------------------------|

    --2-----5/---0--2--------|--5/---0--2-------------------------------|

    --2-----5/---0--2--------|--5/---0--2-------------14-16-17-16-17-19/|

    --0--0---------------0-0-|---------------14-15-17-------------------|

    -------------------------|------------------------------------------|




    -------------------------|-------------8/-7/-8/-7--|------------------ -------|
    -------------------------|-------------8/-7/-8/-7--|------------------ -------|
    --------5/---0--2--------|--5/---0--2--5/-4/-5/-4--|--2-----5/---0--2- -2-----|
    --------5/---0--2--------|--5/---0--2--------------|--2-----5/---0--2- -2-----|
    --0--0---------------0-0-|-------------------------|--0--0------------ ----0--|
    -------------------------|-------------------------|------------------ -------|



    ------------------------------|-------------------------|
    ------------------------------|-------------------------|
    --5/---0--2--4h5h4------------|--2-----5/---0--2--2--2--|
    --5/---0--2--------7-5--------|--2-----5/---0--2--2--2--|
    -----------------------7-5-3--|--0--0-------------0--0--|
    ------------------------------|-------------------------|



    ------------------------|--------------------------|------------------ --------|
    -----------3------------|--------------------------|------------------ --------|
    -----------0------------|--------4--------6--------|--7------7--6~---- ----6---|
    --9--7--5--0------------|--------4--------6--------|--7------7--6~---- ------6-|
    --7--5--3---------------|--------------------------|------------------ --------|
    -----------3------19/---|--5h-7-----5--7-----7--9--|-----10----------- --------|



    --------------------------|-------------------------|----------------- ---------|
    --------------------------|-------------------------|----------------- ---------|
    --------4--------6--------|--7------7--6--------6---|--------4-------- 6--------|
    --------4--------6--------|--7------7--6--------6---|--------4-------- 6--------|
    --------------------------|-----------------------0-|----------------- ---------|
    --5--7-----5--7-----7--9--|-----10------------------|--5--7-----5--7-- ---7--9--|



    --------------------------|--------------------------|---------------- -------|
    --------------------------|--------------------------|---------------- -------|
    --7------7--6~--------6---|--------4--------6--------|--7------------- -------|
    --7------7--6~----------6-|--------4--------6--------|--7------------- -------|
    --------------------------|--------------------------|---------------- -------|
    -----10-------------------|--5--7-----5--7-----7--9--|-----9--10--0--- -------|



    ------------------------|----------------------|---------------------- --|
    ------------------------|----------------------|---------------------- --|
    --2-----5-----5--7~-----|--0-------2----5------|--2--2--5-----5--7~--- --|
    --2-----5-----5--7~-----|--0-------2-----------|--2--2--5-----5--7~--- --|
    --0--0-----0------------|----------0-----------|--0--0-----0---------- --|
    ------------------------|-------3b-------------|---------------------- --|



    ------------------------|-------------------------|
    ------------------------|-------------------------|
    --x-0------2------------|--2-----5/---0--2--2-----|
    --x-0------2------------|--2-----5/---0--2--2-----|
    -----------0----19/-----|--0--0----------------0--|
    --------3b--------------|-------------------------|



    -------------------------------------|-------------------------|
    ---------------------------------17b-|-------------------------|
    --5------------------------------17b-|--2-----5/---0--2--2-----|
    --5---------------------16-17-19-----|--2-----5/---0--2--2-----|
    ---------0--0/-15-17-19--------------|-----0----------------x--|
    -------------------------------------|-------------------------|



    -------------------------|------------------------|------------------- -----|
    -------------------------|------------------------|------------------- -----|
    --5/---0--2--------------|--2----5/---0--2--------|--5/---0--2-------- -----|
    --5/---0--2--0h-1--0-----|--2----5/---0--2--------|--5/---0--2-------- -----|
    ----------------------3--|--0-----------------0-0-|------------------0 -----|
    -------------------------|------------------------|---------------3b-- --3b-|



    -------------------------|----------------------|--------------------- -----|
    -------------------------|-----------3----------|--------------------- -----|
    --2--2--5/---0--2--------|-----------0----------|--------4--------6--- -----|
    --2--2--5/---0--2--2--5--|--9--7--5--0----------|--------4--------6--- -----|
    --0--0-------------0--3--|--7--5--3-------------|--------------------- -----|
    -------------------------|-----------3----------|--5--7-----5--7-----7 --9--|



    -----------------------|--------------------------|------------------- ------|
    -----------------------|--------------------------|------------------- ------|
    --7------7--6~---------|--------4--------6--------|--7------7/-6----6- ------|
    --7------7--6~---------|--------4--------6--------|--7------7/-6----6- ------|
    -----------------------|--------------------------|------------------- -0----|
    -----10----------------|--5--7-----5--7-----7--9--|-----10------------ ------|



    --------------------------|-------------------------|----------------- ---------|
    --------------------------|-------------------------|----------------- ---------|
    --------4--------6--------|--7------7--6~-----------|--------4-------- 6--------|
    --------4--------6--------|--7------7--6~-----------|--------4-------- 6--------|
    --------------------------|-------------------------|----------------- ---------|
    --5--7-----5--7-----7--9--|-----10------------12/---|--5--7-----5--7-- ---7--9--|



    -----------------------|--------------------|----------------------|
    -----------------------|--------------------|----------------------|
    --7--------------------|--2------------2----|--2----2----2----2----|
    --7--------------------|--2------------2----|--2----2----2----2----|
    -----------------------|--0------------0----|--0----0----0----0----|
    -----9--7--0------x/---|--------------------|----------------------|



    ----------------------|----------------------|-------------------|
    ----------------------|----------------------|-------------------|
    --2----2----2----2----|--2----2----2----2----|--5----------------|
    --2----2----2----2----|--2----2----2----2----|--5----------------|
    --0----0----0----0----|--0----0----0----0----|-------------------|
    ----------------------|----------------------|-------------------|



    -------------------|-------------------|-------------------|---------- ---------|
    -------------------|-------------------|-------------------|---------- ---------|
    --4----------------|--0----------------|-------------------|--5------- ---------|
    --4----------------|--0----------------|-------------------|--5------- ---------|
    -------------------|-------------------|--0----------------|---------- ---------|
    -------------------|-------------------|-------------------|---------- ---------|



    --------------------|-------------------|--------------------|
    --------------------|-------------------|--------------------|
    --7~-------0--------|--2----------------|--------------------|
    --7~-------0--------|--2----------------|--------------------|
    --------------------|--0----------------|--------------------|
    --------------------|-------------------|----------17/-------|



    -------------------|--------------------|-------------------|
    -------------------|--------------------|-------------------|
    --5----------------|--4------------x/---|--0----------------|
    --5----------------|--4------------x/---|--0----------------|
    -------------------|--------------------|-------------------|
    -------------------|--------------------|-------------------|



    --------------------|----------------------|--------------------|
    --------------------|----------------------|--------------------|
    -----------------4--|--5--------5h-2--0----|--7--------0--------|
    --2--------------4--|--5--------5h-2--0----|--7--------0--------|
    --0-----------------|----------------------|--------------------|
    --------------------|----------------------|--------------------|



    --------------------------|-----------------------|------------------- -------|
    --------------------------|-----------------------|------------------- -------|
    --2------5/---0--2--------|--5/---0--2------------|--2------5/---0--2- -------|
    --2------5/---0--2--------|--5/---0--2------------|--2------5/---0--2- -------|
    --0--0-0--------------0-0-|-----------------------|--0--0-0----------- ---0-0-|
    --------------------------|---------------17/-----|------------------- -------|



    -------------12h15h12h15h12h15h12h15h12h15/-|------------------------|
    --------------------------------------------|------------------------|
    --5/---0--2---------------------------------|--------5/---0--2-------|
    --5/---0--2---------------------------------|--------5/---0--2-------|
    --------------------------------------------|--0--0---------------0--|
    --------------------------------------------|------------------------|



    ------------------------------------------|--------------------------|
    ------------------------------------------|--------------------------|
    --5----0--2-------------------------------|--2------5/---0--2--------|
    --5----0--2-------------14-16-17-16-17-19-|--2------5/---0--2--------|
    ---------------14-15-17-------------------|--0--0-0--------------0-0-|
    ------------------------------------------|--------------------------|



    ----------------------|--------------------------|
    -------------5b-------|--------------------------|
    --5/---0--2-----------|--2------5/---0--2--------|
    --5/---0--2-----------|--2------5/---0--2--------|
    ----------------------|--0--0-0------------0--0--|
    ----------------------|--------------------------|



    ------------------------------|-------------------------|------------- ---------|
    ------------------------------|-------------------------|-----------3- ---------|
    --5/---0--2----0h2h0----------|--2-----5/---0--2--------|-----------0- ---------|
    --5/---0--2----------0h1h0----|--2-----5/---0--2--------|--9--7--5--0- ---------|
    ---------------------------3b-|--0--0-------------0--0--|--7--5--3---- ---------|
    ------------------------------|-------------------------|-----------3- ---------|



    -------------------------|------------------------|------------------- ------|
    -------------------------|------------------------|------------------- ------|
    --2-----5/---0--2--2-----|--5/---0--2-------------|--2-----5/---0--2-- ------|
    --2-----5/---0--2--2-----|--5/---0--2-------------|--2-----5/---0--2-- ------|
    --0--0-------------0--0--|---------------0--------|--0--0------------- 0--0--|
    -------------------------|------------------3r-3r-|------------------- ------|



    ----------------------|-------------------------|--------------------- ---|
    ----------------------|-------------------------|--------------------- ---|
    --5/---0--2-----------|--2-----5/---0--2-----2--|--5/---0--2---------- ---|
    --5/---0--2----5------|--2-----5/---0--2-----2--|--5/---0--2---------- 2--|
    ----------------------|--0--0-------------0--0--|---------------0--3b- ---|
    ----------------------|-------------------------|--------------------- ---|



    -------------------------|----------------------|--------------------- -|
    -------------------------|-----------3----------|--------------------- -|
    --2-----5/---0--2--------|-----------0----------|--2----2----2----2--- -|
    --2-----5/---0--2--------|--9--7--5--0----------|--2----2----2----2--- -|
    --0--0-------------0--0--|--7--5--3-------------|--0----0----0----0--- -|
    -------------------------|-----------3----------|--------------------- -|



    ------------3--------|--3----------------|--------------------|
    ---------------------|-------------------|--------------------|
    --2----2----2--------|--2----------------|--------------------|
    --2----2----2--------|--2----------------|--------------------|
    --0----0----0--------|--0----------------|--------------------|
    ---------------------|-------------------|--------------12/---|



    ---------------------|--------------------|-------------------|
    ---------------------|--------------------|-------------------|
    -------------x--7r---|--5-----------------|----------------5--|
    ---------------------|--------------------|----------------5--|
    --0------------------|---------------0----|-------------------|
    ---------------------|--------------------|-------------------|



    ------------------|------------------------|------------------|
    ------------------|------------------------|------------------|
    ------------------|----------------0h2h0h2-|------------------|
    ------------------|------------------------|------------------|
    ------------------|------------------------|------------------|
    ------------------|------------------------|------------------|



    --------------------|--------------------|----------------------|
    --------------0-----|--------------------|----------------------|
    -----------------5--|--------------5--5--|----5--5--5----5------|
    --------------------|--------------------|----------------------|
    --------------------|--------------------|----------------------|
    --------------------|--------------------|----------------------|



    -----------------------|----------------------------17-|
    -----------------------|--------------------0-17-20----|
    -----------------------|------------------0------------|
    --7--7----7--7------7--|--7---7---7--7-----------------|
    -----------------------|-------------------------------|
    -----------------------|-------------------------------|



    ------17-------17----17-20h17----17-20h17----17----------------|
    --20~-----20~-----20----------20----------20----20h17----17----|
    ------------------------------------------------------20----20h|
    ---------------------------------------------------------------|
    ---------------------------------------------------------------|
    ----------------------------------------------

    nothing else matters
    Veterano
    # nov/04
    · votar



    -------------------------------------------------------------|
    --------------------------------------17b-------17b----------|
    --17h20h17-19h17----17----------------17b-------17b----------|
    -----------------19----19h17h19h17-19-----19h17-----19h17-19-|
    -------------------------------------------------------------|
    -------------------------------------------------------------|



    --------------------------|-----------------------|
    --20~-20~-----------19b---|--21-------------------|
    --20~-20~---------x-------|-----------20h0--------|
    --------------------------|-----------------------|
    --------------------------|-----------------------|
    --------------------------|-----------------------|



    --16-------16-------16-------17-------18-------19-|
    -----15-------15-------15-------16-------17-------|
    --------13-------13-------13-------14-------15----|
    --------------------------------------------------|
    --------------------------------------------------|
    --------------------------------------------------|



    --------19-------------------|--------------------------------------|
    --18-------18-17~------------|--------------------------------------|
    -----16-------17~------------|--5--------4--------3--------2--------|
    ------------------------x/---|-----7h5h7----6h4h6----5h3h5----4h2h4-|
    ------------------------x/---|--------------------------------------|
    ------------------------x/---|--------------------------------------|



    -------------------|------------------|------------------|
    --0----------------|------------------|------------------|
    -------------------|------------------|------------------|
    -------------------|------------------|------------------|
    -------------------|------------------|------------------|
    -------------------|------------------|------------------|



    --3-------------------|-------------------|--------------------|
    ----------------------|-------------------|--------------------|
    --0----------------0--|--2----------------|--------------------|
    -------------------0--|--2----------------|--------------------|
    -------------15/------|--0----------------|--------------------|
    ----------------------|-------------------|----------17/-------|



    ------------------------|------------------------|-------------------- ----|
    ------------------------|------------------------|-------------------- ----|
    --2-----5-----5--7~-----|--0-------2-------2-----|--------5-----5--7~- ----|
    --2-----5-----5--7~-----|--0-------2-------------|--2-----5-----5--7~- ----|
    --0--0-----0------------|----------0----3b----0--|--0--0-----0-------- ----|
    ------------------------|-------3b---------------|-------------------- ----|



    -----------------------------|------------------------|
    -----------------------------|------------------------|
    --0-------2---12h2h0---------|--------5-----5--7~-----|
    --0-------2----------2h0-----|--2-----5-----5--7~-----|
    ----------0--------------3b0-|--0--0-----0------------|
    -------3b--------------------|------------------------|



    ---------------------------|------------------------|----------------- -----|
    ---------------------------|------------------------|----------------- -----|
    --0--------2---------------|--------5-----5--7~-----|--0----0--2----8/ -----|
    --0--------2---------------|--2-----5-----5--7~-----|--0----0--2----8/ -----|
    -----------0----15/-16h-0--|--0--0-----0------------|----------0------ -----|
    -----0--3------------------|------------------------|-------3--------- -----|



    ------------------------|-----------------------|--------------------- ----|
    ------------------------|-----------------------|--------------------- ----|
    --2-----5/---0--2-------|--5/---0--2------------|--2------5/---0--2--- ----|
    --2-----5/---0--2-------|--5/---0--2---------2--|--2------5/---0--2--- ----|
    --0--0---------------0--|--------------------0--|--0--0-0------------- ----|
    ------------------------|-----------------3b----|--------------------- -3--|



    ------------------------|-------------------------|------------------- ---------|
    ------------------------|-------------------------|------------------- ---------|
    --5/---0--2----2--2-----|--2-----5/---0--2--2-----|--5/------2-------- 2--------|
    --5/---0--2----2--2-----|--2--2--5/---0--2--2-----|--5/------2------x- ---------|
    ---------------0--0-----|--0--0-------------------|----------0----x--- ---------|
    ---------------------3b-|----------------------3--|-------3-----x----- ------3b-|



    -------------------------|----------------------|----------8--8--8--8- -8----|
    -------------------------|-----------3----------|--------------------- ------|
    --2------5/---0--2----2--|-----------0----------|--------------------- ------|
    --2------5/---0--2----2--|--9--7--5--0----------|--------------------- ------|
    --0--0-0-----------------|--7--5--3-------------|--------------------- ------|
    -------------------------|-----------3----------|--------------------- ------|



    --2------------5----17----|------------------------------------------- -------|
    --------------------------|------------------------------------------- -------|
    --------------------------|------------------------------------------- -------|
    -------5-5-5-5------------|------------------------------------------- -------|
    -------5-5-5-5------------|--------3-----------3-----------3---------- -3-----|
    -------3-3-3-3------------|--5h3h5---5h3-5h3h5---5h3-5h3h5---5h3-5h3h5 ---5h3-|



    --------------------------------------------------|
    --------------------------------------------------|
    --------------------------------------------------|
    --------------------------------------------------|
    --------3-----------3-----------3-----------3-----|
    --5h3h5---5h3-5h3h5---5h3-5h3h5---5h3-5h3h5---5h3-|



    --------------------------------------------------|
    --------------------------------------------------|
    --------------------------------------------------|
    --------------------------------3-----------3-----|
    --------3-----------3---3h5h3h5---5h3-5h3h5---5h3-|
    --5h3h5---5h3-5h3h5---5---------------------------|



    --------------------------------------------5-----|
    --------------------------------8-8/5-8h5-----8h5-|
    --------------------5-5-7-9h7h9-----------8-------|
    --------5-5-7-7h5h7-------------------------------|
    --7h5h7-------------------------------------------|
    --------------------------------------------------|



    --8-5-7-5-----8-5-7-5-------------------------------|
    ----------8h5---------8h5h8h5---5-------------------|
    ------------------------------8---8h5/4h5h4---4-----|
    --------------------------------------------7---7h4/|
    ----------------------------------------------------|
    ----------------------------------------------------|



    -----------------------------------------------------|---------------- ----|
    -----------------------------------------------------|---------------- ----|
    -----------------------------------------------------|---------------- ----|
    --2h3h2---2-----------2h3h2---2----------------------|---------------- ----|
    --------5---5h3-2h3h5-------5---5h3-2h3h2---2--------|---------------- ----|
    ------------------------------------------5---5-3-2~-|--------------20 /---|



    -----------------------------------------8-|
    ------------------------------------8h10---|
    ------------------------------5-7/9--------|
    ------5-------5-------5-7h5h7--------------|
    --5h7---7h5h7---7h5h7----------------------|
    -------------------------------------------|



    --11h10h8----8--------------------------------------------17-------|
    ----------10---10h8------10-12h10----------13-15h13----------20h17-|
    --------------------9/11----------11/13/14----------14/19----------|
    -------------------------------------------------------------------|
    -------------------------------------------------------------------|
    -------------------------------------------------------------------|



    -----17----------17----------17----------17-20~-|------------------|
    --20----20h17-20----20h17-20----20h17-20--------|------------------|
    ------------------------------------------------|------------------|
    ------------------------------------------------|------------------|
    ------------------------------------------------|------------------|
    ------------------------------------------------|------------------|



    --20--20b-20r-----17h20h17----17h20h17----|
    ---------------------------20----------20-|
    ------------------------------------------|
    ------------------------------------------|
    ------------------------------------------|
    ------------------------------------------|



    --17-20h17----17-20h17----17----------------------|
    -----------20----------20----20h17/16-17----------|
    -----------------------------------------20h19h17h|
    --------------------------------------------------|
    --------------------------------------------------|
    --------------------------------------------------|



    ---------------------------------------|--------------------|
    ---------------------------------------|--------------------|
    --9h17----17---------------------------|--------------------|
    -------19----19h17-------------19~-----|--------------19~---|
    -------------------19-18-17/16-16~-----|--------------16~---|
    ---------------------------------------|--------------------|



    -------------------|-------------------------------------------------- |
    -------------------|-------------------------------------------------- |
    -------------------|--------------------------------------------5-6-8- |
    -------------------|--------------1h2h4-3-4-6-------------3h4h6------- |
    -------------------|--------1-2-4-------------------3-4-6------------- |
    --------------x/---|--1h2h4-------------------3h4h6------------------- |



    ----------------------10h7h8h7----7------------------|
    ------------10h7-8-7-----------10---10h7h8h7---------|
    --------6h9----------------------------------9/7h5h4h|
    --6h7h9----------------------------------------------|
    -----------------------------------------------------|
    -----------------------------------------------------|



    -----------------------------------------------|-------------------|
    -----------------------------------------------|-------------------|
    --5h4---4--------------------------------------|----------5~-------|
    ------7---7h5-4h5h4---4-------------------4~---|-------------------|
    --------------------7---7-5/2h3h2---2/3--------|-------------------|
    ----------------------------------5-----5------|-------------------|



    -------------------|-------------------------------------------------- -|
    --7~---------------|--10h7---7---------------------------------------- -|
    -------------------|-------8---8-5-3-5---5---------------------------- -|
    -------------------|-------------------7---7-4-7h4---4---------------- -|
    -------------------|-------------------------------6---6-3-6h3---3---- -|
    -------------------|-------------------------------------------5---5-3 /|



    -----------24----------|
    -----------------------|
    -----------------------|
    -----------------------|
    -----------------------|
    --2~---------------5h8-|



    ----------------------------------------11-14h11h14h11h14h11h14-17h14h 17h14h17h1
    ----------------10/13h10h13h10h13h10h13h------------------------------ ----------
    -----------8h11------------------------------------------------------- ----------
    ------7h10------------------------------------------------------------ ----------
    --6h9----------------------------------------------------------------- ----------
    ---------------------------------------------------------------------- ----------



    --20h17h20h17h20h17h20-------21~------------|---------------------|
    -----------------------17/20-20~------------|-------3----3--------|
    --------------------------------------------|--2----0----2--------|
    --------------------------------------------|--2----0----0--------|
    --------------------------------------------|--0---------0--------|
    ----------------------------------------17/-|-------3-------------|



    ----------------------|-----------------------|----------------------- --|
    ----------------------|-----------------------|----------------------- --|
    ----------------------|-----------------7--4--|--6~---------4-2-1h2h1- --|
    ----------------------|--------------6--------|----------------------- 4-|
    ----------------------|-----------------------|----------------------- --|
    ----------------------|-----------------------|----------------------- --|



    -------------------------|---------------------------7---------------- -|
    -------------------------|-----------------------3/8---10------------- -|
    -------------------------|---------------------2----------9----------9 -|
    ----------3--6h-7--6--4--|---------------4---4--------------11----11-- -|
    --2/4~-------------------|---------2-3-4---5-------------------12----- -|
    -------------------------|--2~---5------------------------------------ -|



    ---------12-10-9--------------------------|-------------------|
    -----------------10-----------------------|----------0--------|
    -------9------------9----------9/8--------|----------0--------|
    -----9----------------11----11------------|-------------------|
    --11---------------------12---------------|-------------------|
    ------------------------------------------|-------------------|



    --------------17----------17----------17----17-|
    -----------------20h17-20----20h17-20----20----|
    --------19/21----------------------------------|
    -----x-----------------------------------------|
    --x--------------------------------------------|
    -----------------------------------------------|



    --20h17----17-20h17----17-20h17----17-20h19-17-17-|
    --------20----------20----------20----------------|
    --------------------------------------------------|
    --------------------------------------------------|
    --------------------------------------------------|
    --------------------------------------------------|



    --20--19-19-17-17-21-18-17-20-17-16-19-16-15-18-15-14-17-14-13-16-13-1 2-|
    ---------------------------------------------------------------------- --|
    ---------------------------------------------------------------------- --|
    ---------------------------------------------------------------------- --|
    ---------------------------------------------------------------------- --|
    ---------------------------------------------------------------------- --|



    --15-12-11-14-11-10-13-10-9-12-9-8-11-8-7-10-7-6-9-6-5-8-5/0-|
    -------------------------------------------------------------|
    -------------------------------------------------------------|
    -------------------------------------------------------------|
    -------------------------------------------------------------|
    -------------------------------------------------------------|



    --7h4h0-7h4h0-7h4h0-7h4h0-8h5h0-8h5h0-8h5h0-8-0-5-|
    --------------------------------------------------|
    --------------------------------------------------|
    --------------------------------------------------|
    --------------------------------------------------|
    --------------------------------------------------|



    --7h4h0-7h4h0-7h4h0-7h4h0-8h5h0-8h5h0-8h5h0-8h5h0-|
    --------------------------------------------------|
    --------------------------------------------------|
    --------------------------------------------------|
    --------------------------------------------------|
    --------------------------------------------------|



    --12h8h0-12h8h0-12h8h0-12h8h0-10h7h0-10h7h0-10h7h0-10h7h0-|
    ----------------------------------------------------------|
    ----------------------------------------------------------|
    ----------------------------------------------------------|
    ----------------------------------------------------------|
    ----------------------------------------------------------|



    --8h5h0-8h5h0-8h5h0-8h5h0-7h4h0-7h4h0-7h4h0-7h4h0-|
    --------------------------------------------------|
    --------------------------------------------------|
    --------------------------------------------------|
    --------------------------------------------------|
    --------------------------------------------------|



    ----------------------------------------------------------|
    --12h8h0-12h8h0-12h8h0-12h8h0-10h7h0-10h7h0-10h7h0-10h7h0-|
    ----------------------------------------------------------|
    ----------------------------------------------------------|
    ----------------------------------------------------------|
    ----------------------------------------------------------|



    ------------------------------------------------|
    --8h5h0-8h5h0-8h5h0-8h5h0-4h7-12h7h4h7-12h7h4h7-|
    ------------------------------------------------|
    ------------------------------------------------|
    ------------------------------------------------|
    ------------------------------------------------|



    --------------------------------------|
    --12h7h4h7-12h7h4h7-12h8h5h8-12h8h5h8-|
    --------------------------------------|
    --------------------------------------|
    --------------------------------------|
    --------------------------------------|



    ----------------------------------------------|
    --12h8h5h8-12h8h5h7-17h9h12h9h12-17h9h12h9h12-|
    ----------------------------------------------|
    ----------------------------------------------|
    ----------------------------------------------|
    -----------------------------------------

    nothing else matters
    Veterano
    # nov/04
    · votar





    ----------------------------------------------------------|
    --17h9h12h9h12-17h9h12h9h12-17h10h13h10h13-17h10h13h10h13-|
    ----------------------------------------------------------|
    ----------------------------------------------------------|
    ----------------------------------------------------------|
    ----------------------------------------------------------|



    --------------------------------------------------------------|
    --17h10h13h10h13-17h10h13h10/12-20h12h15h12h15-20h12h15h12h15-|
    --------------------------------------------------------------|
    --------------------------------------------------------------|
    --------------------------------------------------------------|
    --------------------------------------------------------------|



    --------------------------------------------------------------|
    --20h12h15h12h15-20h12h15h12h15/22h13h17h13h17-22h13h17h13h17-|
    --------------------------------------------------------------|
    --------------------------------------------------------------|
    --------------------------------------------------------------|
    --------------------------------------------------------------|



    --------------------------------------------------|
    --22h18h13h18-22h18h14h18-22h17h14h17-21h17h14h17-|
    --------------------------------------------------|
    --------------------------------------------------|
    --------------------------------------------------|
    --------------------------------------------------|



    -----------------------------------|------------------|
    --21h17h14h17-21h17h14h17----------|------------------|
    -----------------------------------|------------------|
    -----------------------------------|------------------|
    --------------------------0--------|------------------|
    -----------------------------------|------------------|



    -------------------------|----------------------------------|
    -------------------------|----------------------------------|
    --5--5--5----5--5--5-----|--7h5-----8h5-----7h5-----8h5-----|
    ----------------------x/-|------7-5-----7-5-----7-5-----7-5-|
    ----------------------x/-|----------------------------------|
    ----------------------x/-|----------------------------------|



    ----------------------------------|----------------------------------- -------|
    ----------------------------------|----------------------------------- -------|
    --8h5-7-5-----8h5-----8h5-7-5-----|--10h8------11h8------10h8------11h 8------|
    ----------7-5-----7-5---------7-5-|-------10-8------10-8------10-8---- --10-8-|
    ----------------------------------|----------------------------------- -------|
    ----------------------------------|----------------------------------- -------|



    -------------------------------------------|
    -------------------------------------------|
    --11h8-10-8------11h8------10h8------------|
    ------------10-8------10-8------10-8-12-12-|
    -------------------------------------------|
    -------------------------------------------|



    --------------------------------------------------|
    --------------------------------------------------|
    --14h12-------15h12-------15h13-------16h13-------|
    --------14-12-------14-12-------15-13-------15-13-|
    --------------------------------------------------|
    --------------------------------------------------|



    --------------------------------------------------|
    --------------------------------------------------|
    --16h14-------17h14-------17h15-------18h15-------|
    --------16-14-------16-14-------17-15-------17-15-|
    --------------------------------------------------|
    --------------------------------------------------|



    ----------------------------------------------|--------------------|
    --------------------------------------20~-----|--------------------|
    --18h16-------19h16-------19h17---------------|----------0---------|
    --------18-18-------18-16-------19h17---------|---------------0----|
    ----------------------------------------------|--------------------|
    ----------------------------------------------|--------------------|



    -------------------|--------------------|-------------------------|
    -------------------|--------------------|-------------------------|
    -------------------|--------------------|--2-----5/---0--2--------|
    -------------------|--------------------|--2-----5/---0--2--------|
    -------------------|--------------------|--0--0---------------0-0-|
    --3----------------|----------17/-------|-------------------------|


    august22
    Veterano
    # nov/04
    · votar


    boa

    Kamelot
    Veterano
    # nov/04
    · votar


    nothing else matters
    porra!!!!!
    valeu cara

      Enviar sua resposta para este assunto
              Tablatura   
      Responder tópico na versão original
       

      Tópicos relacionados a Suicide Solution