Clichês de Blues

    Autor Mensagem
    Fritz_mkvl
    Veterano
    # set/04


    Postem aqui Clichês de Blues

    Peguei esse aqui do cifra club e usei pra fazer uma zueira com a minha banda:


    e------------------------------------------------------
    B------------------------------------------------------
    G------------------------------------------------------
    D------------------------------------------------------
    A------------------------------------------------------
    E--0----0-0----00----0-3-5-3-0----0-0----0-0----0-3-5-3-0


    Fica repetindo isso um tempo e depois faça:


    e------------------------------------------------------
    B------------------------------------------------------
    G------------------------------------------------------
    D------------------------------------------------------
    A------------------------------------------------------
    E--0-3-5-3-9-9-9-9-9-9-9-9-9-9-9-9--7-7-7-7-7-7-7-7--0-3-5-3-0-----0-0 ----0-0


    E voilá um clichê de blues.

    Quando o palcomp3 voltar acesse www.moskasvolantes.palcomp3.com.br e baixe "O japa morreu" para ouvir esse clichê.

    Alan411
    Veterano
    # set/04
    · votar



    e------5-8-5--------5-8-5------------------------------
    B---8-----------8--------------------------------------
    G------------------------------------------------------
    D------------------------------------------------------
    A------------------------------------------------------
    E------------------------------------------------------


    felipe_sp
    Veterano
    # set/04
    · votar


    nao curti os dois :9

    Fritz_mkvl
    Veterano
    # set/04
    · votar


    felipe_sp
    Posta um aê, colabore.

    KISS
    Veterano
    # set/04
    · votar


    Um Blues/Rock bem clássico


    e--4/5-5-5-------4/5-5-5---------
    B--4/5-5-5-------4/5-5-5---------
    G--------------------------------


    KISS
    Veterano
    # set/04
    · votar



    e-----------5-5--------5-5-------5-5--------------------
    B-----------5-5--------5-5-------5-5--------------------
    G-------7b---------7b--------7b-------------------------


    Fritz_mkvl
    Veterano
    # set/04
    · votar


    Ou assim também.

    e----5-5--------5-5--------5-5-------------------------
    B----5-5--------5-5--------5-5-------------------------
    G----------7b---------7b---------7b--------------------


    É a mesma coisa.

    didi_lm
    Veterano
    # set/04
    · votar



    e-------0------0-------0------0-------0---------------
    B--4/5----4/5-----4/5----4/5-----4/5-------------------
    G------------------------------------------------------
    D------------------------------------------------------
    A------------------------------------------------------
    E------------------------------------------------------

    se excutado rapidamente dah um efeito legal...

    GuitarHouse
    Veterano
    # set/04
    · votar



    e--------------5----------------------------------------
    B------------5------8---5---------------------------------
    G---------7b-------------------7b--------------------------
    D------------------------------------------------------
    A------------------------------------------------------
    E------------------------------------------------------


    slash_sp
    Veterano
    # set/04
    · votar



    e----5-5--5------------5-5--5--------------------------
    B----5-5--5------------5-5--5--------------------------
    G-------------7--5/6-----------7--5/6------------------
    D------------------------------------------------------
    A------------------------------------------------------
    E------------------------------------------------------


    gustavo macaco
    Veterano
    # set/04 · Editado por: Moderador
    · votar


    fiz um riff em A, em cima do primeiro post:


    e------------------------------------------------------
    B------------------------------------------------------
    G---------------------------------------/7---5---------
    D---------------------------------------/7---5---------
    A---0--0--3--5--0--0--3--5--0--0--3--5-----------------
    E------------------------------------------------------

    .
    .
    .
    .
    .
    .
    .
    .
    .

    e------------------------------------------------------
    B------------------------------------------------------
    G------------------------------------------------------
    D------------------------------------------------------
    A---0--0--3--5--0--0--3--5--0--0--5p-3-----3-----------
    E---------------------------------------5--------------


    gustavo macaco
    Veterano
    # set/04
    · votar


    po separem as tabs ai pra mim que nao consigo

    augustosrv
    Veterano
    # set/04
    · votar


    Clichês.. gente... ehhe que isso
    Querem estudar blues?

    Stevie Ray Vaughan, Albert King, BB King, Eric Clapton, Muddy Waters, Howlin' Wolf, Albert Lee.....

    Estudem escala pentatônica, turnaround e levadas shuffle
    E ouçam muito blues.. aí sim

    Um estilo musical tem q ser incorporado e não reproduzido..
    []'s

    Fritz_mkvl
    Veterano
    # set/04 · Editado por: Fritz_mkvl
    · votar


    Eu gravei os clichês que postamos aqui, acho que dá pra ter uma noção de como devem soar, perdão pela ruindade na execução de lick 4 o ruido em todos e os bends desafinados.


    [uri=http://www.terra.com.br/discovirtual/vd.cgi/+FPocFeFmJNqngnONDcgN FIqm0TSiedZLMqK9FFBrjwfVOsHgzTQGvudmSP1eed87UEPoC89Q50ZCMKFOEy0MtKTNqx ZWPzKoNtpiS*AyyFglIdlvdN0SFczVcd*9IZWJx|_we=23|_f=/07%20%2D%20O%20Japa %20Morreu%28Ensaio%206%2D6%2D2004%29.rar
    ]http://www.terra.com.br/discovirtual/vd.cgi/+FPocFeFmJNqngnONDcgNFIqm 0 TSiedZLMqK9FFBrjwfVOsHgzTQGvudmSP1eed87UEPoC89Q50ZCMKFOEy0MtKTNqxZWPzK oNtpiS*AyyFglIdlvdN0SFczVcd*9IZWJx|_we=23|_f=/07%20%2D%20O%20Japa%20Mo rreu%28Ensaio%206%2D6%2D2004%29.rar]O japa morreu
    [/uri]
    [uri=http://www.terra.com.br/discovirtual/vd.cgi/+zcQwz9zUN1z4GZuz5wSF z3N5XVJK54iDEdK3zzY96lKkGkx7lcIyVU4MbHp554wvdjMGwPkn7PafJX*S8r3HeWXp*2 6zEqTCLZKnz7zuuz95ycbyHbs0zxqM9GYR03DIt|_we=23|_f=/licks%20blues.zip]h ttp://www.terra.com.br/discovirtual/vd.cgi/+zcQwz9zUN1z4GZuz5wSFz3N5X VJK54iDEdK3zzY96lKkGkx7lcIyVU4MbHp554wvdjMGwPkn7PafJX*S8r3HeWXp*26zEqT CLZKnz7zuuz95ycbyHbs0zxqM9GYR03DIt|_we=23|_f=/licks%20blues.zip]Licks de blues[/uri]

    Fritz_mkvl
    Veterano
    # set/04
    · votar


    perdão os link de novo:

    http://www.terra.com.br/discovirtual/vd.cgi/+FPocFeFmJNqngnONDcgNFIqm0 TSiedZLMqK9FFBrjwfVOsHgzTQGvudmSP1eed87UEPoC89Q50ZCMKFOEy0MtKTNqxZWPzK oNtpiS*AyyFglIdlvdN0SFczVcd*9IZWJx|_we=23|_f=/07%20%2D%20O%20Japa%20Mo rreu%28Ensaio%206%2D6%2D2004%29.rar


    http://www.terra.com.br/discovirtual/vd.cgi/+zcQwz9zUN1z4GZuz5wSFz3N5X VJK54iDEdK3zzY96lKkGkx7lcIyVU4MbHp554wvdjMGwPkn7PafJX*S8r3HeWXp*26zEqT CLZKnz7zuuz95ycbyHbs0zxqM9GYR03DIt|_we=23|_f=/licks%20blues.zip

    Homem Cueca
    Veterano
    # set/04
    · votar


    sempre um blues termina assim.

    e------------------------------------------------------
    B------------------------------------------------------
    G--5-4-3--------------------------------------------------
    D--4-3-2--------------------------------------------------
    A--5-4-3--------------------------------------------------
    E------------------------------------------------------


    Hocus Pocus
    Veterano
    # set/04
    · votar


    fiz um trabalho de escola, dai apresentamo fazendo um blues e contando a história do livro

    eu terminei assim oh:


    e---0-----0-----0-----------------0-----------------------
    B-----0-----0-----0---------------0-----------------------
    G-4-----3-----2-----1-----1/2-1---1--------------------------
    D---------------------------------0---------------------
    A---------------------------------2---------------------
    E---------------------------------0---------------------


    eh em Em \o/

    meu prof q me passo... e eh taum cliche q vem ateh naqueles ritmos de teclado xP blues 1, blues 2, etc xP

    jimmypagelf
    Veterano
    # set/04
    · votar


    solos de blues legais são aqueles emprovisados e com muito amor e carinho

    Reinaldo Camargo Filho
    Veterano
    # set/04
    · votar


    jimmypagelf

    Pode crer. :D

    Doctor Robert
    Veterano
    # set/04
    · votar



    e--8b-5---------------------------------------------------
    B--7b-5-7--------------------------------------------------
    G-------7-5h6----------------------------------------------
    D-------------7-----------------------------------------
    A------------------------------------------------------
    E------------------------------------------------------


    ou


    e-8-7-5---------------------------------------------------
    B-8-7-5-7--------------------------------------------------
    G-------7-5h6----------------------------------------------
    D-------------7-----------------------------------------
    A------------------------------------------------------
    E------------------------------------------------------


    PeroaFrito
    Veterano
    # set/04
    · votar


    Mas os clichês quebram um galhão!

    biozz
    Veterano
    # out/04
    · votar


    usem a pentamenor com a II aumentada p/ solar em blues,. fica muito bom

    Tuarelli
    Veterano
    # out/04
    · votar


    Ah, acho meio paia isso. Mto decorado. Blues eh algo pra se sentir, não decorar. Use as 5 escalas pentatônicas com muita criatividade.

    MacCa
    Veterano
    # out/04
    · votar


    Fritz_mkvl

    Ao envés de ir pra C# (9) e B (7), vai pra B (7) e A (5).

    Casseta, eu aprendi todos esses clichês sozinho! Aqui vai um lick legal:


    e------------------------------------------------------
    B--------12b(14)-12-10---------------------------------
    G-----9-----------------xx--11b-12b-13b-14b------------
    D-/11--------------------------------------------------
    A--------------------------------------------9v--------
    E------------------------------------------------------


      Enviar sua resposta para este assunto
              Tablatura   
      Responder tópico na versão original
       

      Tópicos relacionados a Clichês de Blues