por favor esse solo...

    Autor Mensagem
    axe
    Veterano
    # ago/04


    por favor alg sabe fazer o solo da música qdo o sol bater na janela do seu quarto na versao do barão vermelho se souberem ou tiverem p o guitar pro por favor me paasem eu só consigo fazer um pedaço...por favor me ajudem....

    axe
    Veterano
    # ago/04
    · votar


    ççççç

    Reinaldo Camargo Filho
    Veterano
    # ago/04
    · votar


    To baixando a música para ver como que é, que eu vou tentar tirar o solo perae.

    Reinaldo Camargo Filho
    Veterano
    # ago/04 · Editado por: Reinaldo Camargo Filho
    · votar


    b = bend
    r = soltar o bend


    e--12----10-12----12-10-------12-10----------------10--
    B-----13-------13-------13-10-------1312--10-12-13-----
    G------------------------------------------------------
    D------------------------------------------------------
    A------------------------------------------------------
    E------------------------------------------------------


    Toque isso 2 vezes usando um oitavador.

    Agora a segunda parte.


    e--------------------------------------------10b11-----
    B-13---13-13-13---13-13-13-----13---------13-----------
    G-11b13------11b13------11b13--11b13-1212--------------
    D------------------------------------------------------
    A------------------------------------------------------
    E------------------------------------------------------





    e-10b11r10---------------------------------------------
    B----------13-10---------------------------------------
    G----------------12----10--9-10-9-10-9-10-9-10b12r10---
    D-------------------10---------------------------------
    A------------------------------------------------------
    E------------------------------------------------------





    e------------------------------------------------------
    B------------------------------------------------------
    G-10-7b9r7-77-5----------------------------------------
    D----------------7-5-----------------------------------
    A--------------------7-6-5-3---------------------------
    E------------------------------------------------------



    Eu toquei e ficou igualzinho. Tenta ae cara.

    king_arthur
    Veterano
    # ago/04
    · votar


    Reinaldo Camargo Filho
    nao precisa usar oitavador na primeira parte ali nao cara... eh soh fazer assim...


    e--12--8--10-12--8--12-10--8-----12-10--8------------8--10--
    B-----------------------------10----------12--10-12---------
    G--9---5---7--9---5--9--7--5------9--7--5------------5---7--
    D------------------------------7-----------9---7--9--------
    A----------------------------------------------------------
    E----------------------------------------------------------


    me corrija se eu estiver errado, pq eu to sem a guitarra aqui para ver se isto esta "tocavel"

    SNK_2
    Veterano
    # ago/04
    · votar


    me desculpem a ignorancia, mas oq é um oitavador?

    king_arthur
    Veterano
    # ago/04
    · votar


    SNK_2
    e um pedal que oitava a nota... heheheh bom... eh um pedal que toca junto com o q tu tah tocando uma melodia igualzinha uma oitava abaixo, ou seja, mais grave... sacou?

    SNK_2
    Veterano
    # ago/04
    · votar


    king_arthur
    ah ta, e tu sabe quanto custa + ou- um desses???

    nothing else matters
    Veterano
    # ago/04
    · votar


    SNK_2
    uns 600 conto

    GuitarHouse
    Veterano
    # ago/04
    · votar


    nothing else matters
    po, por 600 pego uma me-8 usada q tem pitch shifter e muchas cosas mas.

    nothing else matters
    Veterano
    # ago/04
    · votar


    GuitarHouse
    eu sei..!
    mas um octave(oitavador) custa assim msm

    nothing else matters
    Veterano
    # ago/04
    · votar


    GuitarHouse
    se comprou seu me-8 usado?

    Reinaldo Camargo Filho
    Veterano
    # ago/04
    · votar


    king_arthur

    pode crer, da para fazer assim tbm. valeu. :)

    axe
    Veterano
    # ago/04
    · votar


    Valeu pelo solo pessoal..ainda não toquei pra ver se tá igual mas valeu...ahh eu sou iniciante e peço que me esclareçam algumas dúvidas..aí vai: um pedal de oitava custa tudo isso mesmo(600 reais)?não tem um da onner que seja mais barato? como eu faço pra tocar essa parte do solo:

    e------------------------------------------------------
    B-13-----------------------------------------------------
    G-11b13-----------------------------------------------------
    D------------------------------------------------------
    A------------------------------------------------------
    E---------------------------------------------------

    Eu quero saber como posicionar os dedos já que tenho que tocar a casa 13 na b e dar um bend na 11 na G, como fazer isso? e no caso de não usar um pedal de oitava como eu toco isso:[T]
    e-12---8--------------------------------------------------
    B------------------------------------------------------
    G--9---5-------------------------------------------------
    D------------------------------------------------------
    A------------------------------------------------------
    E------------------------------------------------------
    é pra tocar c/ a palheta ou devo tocar tipo mpb(usando polegar e indicador ao mesmo tempo?) por favor me ajudem eu sopu iniciante em solos e aprei de fazer aulas por falta de grana...

    axe
    Veterano
    # ago/04
    · votar


    Annn?

    GuitarHouse
    Veterano
    # ago/04
    · votar


    nothing else matters
    sim
    paguei 400 com hard case animal..hehe
    mas ele tava com uma falha(depois q descobri e entendi pq tava tao barato) mas ai fucei e vi q era mal-contto

    ou seja, otimo negocio
    :0

    nothing else matters
    Veterano
    # ago/04
    · votar


    GuitarHouse
    porra,pra pagar 400 conto foi ÓTIMO negocio cara
    ;]

    axe
    Veterano
    # ago/04
    · votar


    põ possoal respondam a pergunta que fiz acima por favor...a parte do b-13----- não tá igual ou eu que ´~ao sei fazer
    g-11b13--
    direito..tel alg outro jeito der fazer essa parte?

    king_arthur
    Veterano
    # ago/04
    · votar


    Reinaldo Camargo Filho
    beleza =]

    SuperGeo
    Veterano
    # ago/04
    · votar


    axe


    e------------------------------------------------------
    B--13---------------------------------------------------
    G--11b13-------------------------------------------------
    D------------------------------------------------------
    A------------------------------------------------------
    E------------------------------------------------------

    toque 13 e 11, na corda G faça o bend (11b13) logo apos palhetar


    axe
    Veterano
    # ago/04
    · votar


    13 e 11 na corda G? mas não é 13 na B e 11 na G..já não to entendendo mais nada por favor me ajudem, ...

    axe
    Veterano
    # ago/04
    · votar


    13 e 11 na corda G? mas não é 13 na B e 11 na G..já não to entendendo mais nada por favor me ajudem, ...

    Motley Crue
    Veterano
    # ago/04
    · votar


    axe
    seguinte cara, vc vai tocar as cordas B na 13 casa, e a corda G na 11 casa, dae apos tocar as duas ao mesmo tempo, vc vai dar um bend na corda G na casa 11 de 1 tom, soando assim como se fosse a 13 casa da G, que eh oque ta falando ali.... bom eh isso que eu entedi pela TAB, mas num tem bem um padrao pra TAB... deve ser isso mesmo que falei, toca junto da musica e ve se fica igual... espero ter ajudado

    no mais tem uma link lah no site principal onde ensina a ler tablaturas, pode te ajudar um pouco mais...

    axe
    Veterano
    # ago/04
    · votar


    Eu seim ler tab's mas é que ta meio estranho...eu devo tocar 13 na B e 11 na G ao mesmo tempo certo? e depois dar um bend na G 11 de 1 tom,certo? mas para dar o bend apos tocar 13 B e 11 G eu devo palhetar a corda G ou não?

    axe
    Veterano
    # ago/04
    · votar


    não sei se fui muito claro...

      Enviar sua resposta para este assunto
              Tablatura   
      Responder tópico na versão original
       

      Tópicos relacionados a por favor esse solo...